Song name
# A B C D E F G H I J K L M N O P Q R S T U V W X Y Z

Slayer - Bloodline tab

9. Bloodline

Tuning Db


 RIFF 1A INTRO x2

|KING
|-------------------------|
|-------------------------|
|-------------------------|
|-------------------------|
|-2---2-2---2-1---1-0---0-|
|-0---0-3---3-2---2-1---1-|




 RIFF 1 INTRO x1

|---------------------------------|---------------------------------|
|---------------------------------|---------------------------------|
|---------------------------------|---------------------------------|
|---------------------------------|---------------------------------|
|-2-----2-2-----2-1-----1-0-----0-|-2-----2-2-----2-1-----2-4-5---3-|
|-0-----0-3-----3-2-----2-1-----1-|-0-----0-3-----3-2-----0-2-3---1-|
                                                               x


|x2
|---------------------------------|---------------------------------|
|---------------------------------|---------------------------------|
|---------------------------------|---------------------------------|
|---------------------------------|---------------------------------|
|-2-----2-2-----2-1-----2-4-5---3-|-2-----2-2-----2-1-----2-4-5---3-|
|-0-----0-3-----3-2-----0-2-4---1-|-0-----0-3-----3-2-----0-2-3---1-|
                             x                                 x



 RIFF 2A INTO VERSE x2

|KING
|---------------------------------|
|---------------------------------|
|---------------------------------|
|---------------------------------|
|---------------------------------|
|-1-0-0---0---1-1-0-0-0---1-0-0---|
  . . .   .   . . . . .   . . .



 RIFF 2 VERSE x4

|x3                               |x1
|---------------------------------|---------------------------------|
|---------------------------------|---------------------------------|
|---------------------------------|---------------------------------|
|---------------------------------|---------------------------------|
|---------------------------------|-------------2---3---6---5---8---|
|-1-0-0---0---1-1-0-0-0---1-0-0---|-1-0-0---0---0---1---4---3---6---|
  . . .   .   . . . . .   . . .     . . .   .



 RIFF 1B CHORUS x1

|---------------------------------|---------------------------------|
|---------------------------------|---------------------------------|
|---------------------------------|---------------------------------|
|---------------------------------|---------------------------------|
|-2-----2-2-----2-1-----1-0-----0-|-2-----2-2-----2-1-----2-4-5---3-|
|-0-----0-3-----3-2-----2-1-----1-|-0-----0-3-----3-2-----0-2-3---1-|
                                                               x


|---------------------------------|---------------------------------|
|---------------------------------|---------------------------------|
|---------------------------------|---------------------------------|
|---------------------------------|---------------------------------|
|-2-----2-2-----2-1-----1-0-----0-|-2-----2-2-----2-1-----2-4-5-----|
|-0-----0-3-----3-2-----2-1-----1-|-0-----0-3-----3-2-----0-2-3-----|
                                                               x



 RIFF 2A VERSE x4

|---------------------------------|---------------------------------|
|---------------------------------|---------------------------------|
|---------------------------------|---------------------------------|
|---------------------------------|---------------------------------|
|---------------------------------|-------------2---3---6---5---8---|
|-1-0-0---0---1-1-0-0-0---1-0-0---|-1-0-0---0---0---1---4---3---6---|
  . . .   .   . . . . .   . . .     . . .   .



 RIFF 1B CHORUS x1


 RIFF 3 BREAK x1

|KING x2
|-------------------------------------|
|-------------------------------------|
|-------------------------------------|
|-------------------------------------|
|-------------------------------------|
|-0-1---4---3---2---2-3---6---5---4---|
| . .   .   .   .   . .   .   .   .
|
|HANNEMAN x2
|-------------------------------------|
|-------------------------------------|
|-------------------------------------|
|-------------------------------------|
|-0-1---4---3---2---2-3---6---5---4---|
|-------------------------------------|
  . .   .   .   .   . .   .   .   .


|KING
|-------------------------------------|
|-------------------------------------|
|-------------------------------------|
|-------------------------------------|
|-----------------------------5-------|
|-0-1---4---3---2---2-3---6---5-------|
| . .   .   .   .   . .   .    x
|
|HANNEMAN
|-------------------------------------|
|-------------------------------------|
|-------------------------------------|
|-------------------------6-----------|
|-0-1---4---3---2---2-3---6---5-------|
|-----------------------------5-------|
  . .   .   .   .   . .   .    x




 RIFF 3A INTERLUDE x8

|-------------------------------------|
|-------------------------------------|
|-------------------------------------|
|-------------------------------------|
|-2-3---6---5---4-----5---8---7---6---|
|-0-1---4---3---2-----3---6---5---4---|
  . .



 SOLO KING
  WAH     WAH     N.H._ WAH & BAR/\/\/\/\/\/\/\ BAR  WAH   N.H._____
|---------------------------------------------------------------------|
|---------------------------------------------------------------------|
|----------------------------------------------------------3-2-2-1-1--|
|-x\\\\---x\\\\---------2h3p2p0h3p2p0h3p2p0h3p0\\\\--x\\\\-3-2-2-1-1--|
|-x\\\\---x\\\\---5-5-5------------------------------x\\\\------------|
|-----------------5-5-5-----------------------------------------------|
                  . . .                                    . . . . .
  WAH     WAH        WAH & BAR/\/\/\/\          N.H.___  WAH     WAH
|------------------------------------------------------------------------|
|------------------------------------------------------------------------|
|--------------------4p3p0h4p3p0h4p3p0-----------------------------------|
|-x\\\\---------------------------------x\\\\---3-3-3-3--x\\\\---x\\\\---|
|-x\\\\---x\\\\\\\\---------------------x\\\\---3-3-3-3--x\\\\---x\\\\---|
|---------x\\\\\\\\------------------------------------------------------|
                                                . . . .
  N.H.___  WAH & BAR/\/\/\/\/\/\/\/\/\/\/\/\/\/\/\/\/\/\/\ N.H.___   WAH
|---------------------------------------------------------------------------
|---------------------------------------------------------------------------
|---------------------------------------------------------------------------
|----------3p2p0h3p2p0h5p3p0h5p3p0h3p2p0h3p2p0h6p5p0h6p5p0-3-3-3-3---x\\\\--
|-5-5-5-5--------------------------------------------------3-3-3-3---x\\\\--
|-5-5-5-5-------------------------------------------------------------------
  . . . .                                                  . . . .
  WAH & BAR   WAH    N.H. BAR N.H. BAR
|-------------------------------------------------|
|------------//22b^^-22\\\\---22////\/\/\\\\\\----|
|-0\\\\\\\\-------------------22////\/\/\\\\\\----|
|-------------------------------------------------|
|-------------------------------------------------|
|-------------------------------------------------|




 RIFF 3B x8 UNDER SOLO

|-------------------------------------|
|-------------------------------------|
|-------------------------------------|
|-------------------------------------|
|-3-5---7---6---5-----6---7---8---7---|
|-1-3---5---4---3-----4---5---6---5---|
  . .



 RIFF 2B BREAK x1

|---------------------------------|---------------------------------|
|---------------------------------|---------------------------------|
|---------------------------------|---------------------------------|
|---------------------------------|---------------------------------|
|---------------------------------|---------------------------------|
|-2-1-1---1---2-2-1-1-1---2-1-1---|-2-1-1---1---2-2-1-1-1---2-1-----|
  . . .   .   . . . . .   . . .     . . .   .   . . . . .   . .x



 RIFF 1A BREAK x1


 RIFF 1C BREAK x1

|---------------------------------|
|---------------------------------|
|---------------------------------|
|---------------------------------|
|-2-----2-2-----2-1-----2-4-5---3-|
|-0-----0-3-----3-2-----0-2-4---1-|
                             x



 RIFF 1D CHORUS x1

|x3
|---------------------------------|---------------------------------|
|---------------------------------|---------------------------------|
|---------------------------------|---------------------------------|
|---------------------------------|---------------------------------|
|-2-----2-2-----2-1-----1-0-----0-|-2-----2-2-----2-1-----2-4-5---3-|
|-0-----0-3-----3-2-----2-1-----1-|-0-----0-3-----3-2-----0-2-3---1-|
                                                               x


|---------------------------------|---------------------------------|
|---------------------------------|---------------------------------|
|---------------------------------|---------------------------------|
|---------------------------------|---------------------------------|
|-2-----2-2-----2-1-----1-0-----0-|-2-----2-2-----2-1-----2-4-5-----|
|-0-----0-3-----3-2-----2-1-----1-|-0-----0-3-----3-2-----0-2-3-----|
                                                               x
Tap to rate this tab
 
# A B C D E F G H I J K L M N O P Q R S T U V W X Y Z