Song name
# A B C D E F G H I J K L M N O P Q R S T U V W X Y Z

Slayer - Gemini tab

_______________________________________________________________________
                            Slayer - Gemini
_______________________________________________________________________


I had done this song on guitar pro and i converted it to ASCII that's why it has 
different layouts.
This was one of the first songs that I tabbed 5 years ago so it might not be as good as 
the other tabs you might see here.

Duration Legend
---------------
W - whole
H - half
Q - quarter
E - 8th
S - 16th
T - 32nd
X - 64th
. - note dotted
|-n-|  - n-tuplets

Tablature Legend
----------------
L - tied note
x - dead note
g - grace note
(n) - ghost note
> - accentuded note
NH - natural harmonic
TH - tapped harmonic
PH - pitch harmonic
h - hammer on
p - pull off
b - bend
br - bendRelease
pb - preBend
pbr - preBendRelease
brb - bendReleaseBend
\n/ - tremolo bar
/ - slide
~ - vibrato
W - wide vibrato
tr - trill
TP - tremolo picking
T - tapping
S - slap
P - pop
^ - brush up
v - brush down


       \2                                      \2
       W                   W                   W
C#||--------------------|-------------------|-------------------|
G#||--------------------|-------------------|-------------------|
E ||*--4----------------|--L----------------|--4----------------|
B ||*--2----------------|--L----------------|--2----------------|
F#||---2----------------|--L----------------|--2----------------|
C#||---0----------------|--L----------------|--0----------------|


  E  E  Q    H         4x   Q.     E  H           Q.     E  H
-----------------------||----------------------|---------------------|
-----------------------||----------------------|---------------------|
----------------------*||*---------------------|---------------------|
----------------------*||*---------------------|---------------------|
--2--3-----------------||---5------7--7--------|--2------1--1--------|
--0--1-----------------||---0------0--0--------|--0------0--0--------|


  Q.     E  H           E  E  E  E  E  E  E  E   5x  E  E  E  E  E  E  Q
---------------------|---------------------------||------------------------|
---------------------|---------------------------||------------------------|
---------------------|--------------------------*||------------------------|
---------------------|--------------------------*||------------------------|
--5------7--7--------|--2--3-----5--4-----3--2---||--2--3-----5--4-----3---|
--0------0--0--------|--0--1--0--3--2--0--1--0---||--0--1--0--3--2--0--1---|


  E  E  E  E  E  E  E  E     E  E  E  E  E  E  E  E
--------------------------|--------------------------|
--------------------------|--------------------------|
--------------------------|--------------------------|
--------------------------|--------------------------|
--2--3-----5--4-----3--2--|--2--3-----6--5-----5--6--|
--0--1--0--3--2--0--1--0--|--0--1--0--4--3--0--3--4--|


  E  E  E   E    E    E  E  E     E  E  E  E   E    E  E  E
-------------------------------|-----------------------------|
-------------------------------|-----------------------------|
-------------------------------|-----------------------------|
-------------------------------|-----------------------------|
-----9--9--10--(10)S--2--2--2--|--2--7--7--9--(9)S--2--2--2--|
--0--7--7---8---(8)S--0--0--0--|--0--5--5--7--(7)S--0--0--0--|


                                                       W
  E  E  E   E    E    E  E  E      E    E  E  E  E  E  Q
-------------------------------|----------------------------|
-------------------------------|----------------------------|
-------------------------------|----------------------------|
-------------------------------|--------------2--1----------|
--2--9--9--10--(10)S--7--7--9--|--(9)\--------------2-------|
--0--7--7---8---(8)S--5--5--7--|--(7)\--0--1-----------2----|


  E  E  E   E    E    E  E  E     E  E  E  E   E    E  E  E
-------------------------------|-----------------------------|
-------------------------------|-----------------------------|
-------------------------------|-----------------------------|
-------------------------------|-----------------------------|
-----9--9--10--(10)S--2--2--2--|--2--7--7--9--(9)S--2--2--2--|
--0--7--7---8---(8)S--0--0--0--|--0--5--5--7--(7)S--0--0--0--|


                                                       W
  E  E  E   E    E    E  E  E      E    E  E  E  E  E  Q
-------------------------------|----------------------------|
-------------------------------|----------------------------|
-------------------------------|----------------------------|
-------------------------------|----------------------------|
--2--9--9--10--(10)S--7--7--9--|--(9)\----------------------|
--0--7--7---8---(8)S--5--5--7--|--(7)\--0--1--3--0--3--2----|


    Q.     E  H           Q.     E  H           Q.     E  H
|----------------------|---------------------|---------------------|
|----------------------|---------------------|---------------------|
|*---------------------|---------------------|---------------------|
|*---------------------|---------------------|---------------------|
|---5------7--7--------|--2------1--1--------|--5------7--7--------|
|---0------0--0--------|--0------0--0--------|--0------0--0--------|


  E  E  E  E  E  E  E  E   5x  E  E  E  E  E  E  Q
---------------------------||-------------------------|
---------------------------||-------------------------|
--------------------------*||-------------------------|
--------------------------*||-------------------------|
--2--3-----5--4-----3--2---||--2--3-----5--4-----3----|
--0--1--0--3--2--0--1--0---||--0--1--0--3--2--0--1----|


  E  E  E  E  E  E  E  E     E  E  E  E  E  E  Q       E  E  E  E  E  E  E  E
--------------------------|-------------------------|--------------------------|
--------------------------|-------------------------|--------------------------|
--------------------------|-------------------------|--------------------------|
--------------------------|-----------------4--3----|--------------------------|
--2--3-----5--4-----3--2--|--2--3-----6-----2--1----|--2--3-----5--4-----3--2--|
--0--1--0--3--2--0--1--0--|--0--1--0--4--0----------|--0--1--0--3--2--0--1--0--|


  E  E  E  E  E  E  Q       E  E  E  E  E  E  E  E     E  E  E  E  E  E  E  E
-------------------------|--------------------------|--------------------------|
-------------------------|--------------------------|--------------------------|
-------------------------|--------------------------|--------------------------|
-------------------------|--------------------------|--------------------------|
--2--3-----5--4-----3----|--2--3-----5--4-----3--2--|--2--3-----3--5-----5--6--|
--0--1--0--3--2--0--1----|--0--1--0--3--2--0--1--0--|--0--1--0--1--3--0--3--4--|


        \2                                      \2
        W                   W                   W
-----|-------------------|-------------------|--------------|
-----|-------------------|-------------------|--------------|
-----|--4----------------|--L----------------|--4-----------|
-----|--2----------------|--L----------------|--2-----------|
-----|--2----------------|--L----------------|--2-----------|
-----|--0----------------|--L----------------|--0-----------|


                         \2
  E  E  Q    H           W                   W
----------------------|-------------------|-------------------|
----------------------|-------------------|-------------------|
----------------------|--4----------------|--L----------------|
----------------------|--2----------------|--L----------------|
--2--3----------------|--2----------------|--L----------------|
--0--1----------------|--0----------------|--L----------------|


  \2                                         \2
  W                   E  E  Q    H           W
-------------------|----------------------|-------------------|
-------------------|----------------------|-------------------|
--4----------------|----------------------|--4----------------|
--2----------------|----------------------|--2----------------|
--2----------------|--2--3----------------|--2----------------|
--0----------------|--0--1----------------|--0----------------|


                      \2
  W                   W                   E  E  Q    H
-------------------|-------------------|----------------------|
-------------------|-------------------|----------------------|
--L----------------|--4----------------|----------------------|
--L----------------|--2----------------|----------------------|
--L----------------|--2----------------|--2--3----------------|
--L----------------|--0----------------|--0--1----------------|


  \2                                      \2
  W                   W                   W
-------------------|-------------------|-------------------|
-------------------|-------------------|-------------------|
--4----------------|--L----------------|--4----------------|
--2----------------|--L----------------|--2----------------|
--2----------------|--L----------------|--2----------------|
--0----------------|--L----------------|--0----------------|


  E  E  E  E  Q    Q       E  E  E  E  E  E  E  E     E  E  E  E  E  E  E  E
------------------------|--------------------------|--------------------------|
------------------------|--------------------------|--------------------------|
------------------------|--------------------------|--------------------------|
------------------------|--------------------------|--------------------------|
--2--3--2--5--5----3----|--2--5--5--6--6--2--2--2--|--2--3--3--5--5--2--2--2--|
--0--1--0--3--3----1----|--0--3--3--4--4--0--0--0--|--0--1--1--3--3--0--0--0--|


  E  E  E  E  E  E  E  E     E  E  E  E  E  E  Q       E  E  E  E  E  E  E  E
--------------------------|-------------------------|--------------------------|
--------------------------|-------------------------|--------------------------|
--------------------------|-------------------------|--------------------------|
--------------------------|-------------------------|--------------------------|
--2--5--5--6--6--3--3--5--|--5--2--3--5--3--5--3----|--2--5--5--6--6--2--2--2--|
--0--3--3--4--4--1--1--3--|--3--0--1--3--1--3--1----|--0--3--3--4--4--0--0--0--|


  E  E  E  E  E  E  E  E     E  E  E  E  E  E  E  E     E  E  E  E  E  E  Q
--------------------------|--------------------------|-------------------------|
--------------------------|--------------------------|-------------------------|
--------------------------|--------------------------|-------------------------|
--------------------------|--------------------------|-------------------------|
--2--3--3--5--5--2--2--2--|--2--5--5--6--6--3--3--5--|--5--2--3--5--3--5--3----|
--0--1--1--3--3--0--0--0--|--0--3--3--4--4--1--1--3--|--3--0--1--3--1--3--1----|


  \1
  W                   W                   W                W
-------------------|-------------------|-------------------|------------------|
-------------------|-------------------|-------------------|------------------|
-------------------|-------------------|-------------------|------------------|
-------------------|-------------------|-------------------|------------------|
-------------------|-------------------|-------------------|------------------|
--0----------------|--L----------------|---L---------------|------------------|


  W                   W                     E  E  E  E  E  E  E  E
-------------------|-------------------||---------------------------|
-------------------|-------------------||---------------------------|
-------------------|-------------------||*--------------------------|
-------------------|-------------------||*--------------------------|
-------------------|-------------------||---2--2--2--2--2--2--2--2--|
-------------------|-------------------||---0--0--0--0--0--0--0--0--|


  E  E  E  E  E  E  Q     5x  E  E  E  E  E  E  E  E
--------------------------||--------------------------|
--------------------------||--------------------------|
-------------------------*||--------------------------|
-------------------------*||--------------------------|
--2--3-----5--L-----3-----||--2--2--2--2--2--2--2--2--|
--0--1--0--3--L--0--1-----||--0--0--0--0--0--0--0--0--|


  E  E  E  E  E  E  E  E     E  E  E  E  E  E     E  E  E  E  E  E  E  E
--------------------------|--------------------|--------------------------|
--------------------------|--------------------|--------------------------|
--------------------------|--------------------|--------------------------|
--------------------------|--------------------|--------------------------|
--2--3-----5--L-----5--6--|-----------4--3--2--|-----------------3--2--1--|
--0--1--0--3--L--0--3--4--|--0--0--0--4--3--2--|--0--0--0--0--0--3--2--1--|


  E  E  E  E  E  E  E  E     E  E  E  E  E  E  E  E
--------------------------|--------------------------|
--------------------------|--------------------------|
--------------------------|--------------------------|
--------------------------|--------------------------|
-----------------4--3--2--|-----3--2--1-----2--2--1--|
--0--0--0--0--0--4--3--2--|--0--3--2--1--0--2--2--1--|


  E  E  E  E  E  E  E  E     E  E  E  E  E  E  E  E
--------------------------|--------------------------|
--------------------------|--------------------------|
--------------------------|--------------------------|
--------------------------|--------------------------|
-----------------4--3--2--|-----------------3--2--1--|
--0--0--0--0--0--4--3--2--|--0--0--0--0--0--3--2--1--|


  E  E  E  E  E  E  E  E     E  E  E  E  E  E  E  E
--------------------------|--------------------------|
--------------------------|--------------------------|
--------------------------|--------------------------|
--------------------------|--------------------------|
-----------------4--3--2--|-----3--3--2-----3--2--1--|
--0--0--0--0--0--4--3--2--|--0--3--3--2--0--3--2--1--|


  E  E  E  E  E  E  E  E     E  E  E  E  E  E  E  E
--------------------------|--------------------------|
--------------------------|--------------------------|
--------------------------|--------------------------|
--------------------------|--------------------------|
-----------------4--3--2--|-----3--2--1-----2--2--1--|
--0--0--0--0--0--4--3--2--|--0--3--2--1--0--2--2--1--|


  E  E  E  E  E  E  E  E     E  E  E  E  E  E  E  E
--------------------------|--------------------------|
--------------------------|--------------------------|
--------------------------|--------------------------|
--------------------------|--------------------------|
-----------------4--3--2--|-----3--3--2-----3--2--1--|
--0--0--0--0--0--4--3--2--|--0--3--3--2--0--3--2--1--|


  E  E  E  E  E  E  E  E     E  E  E  E  E  E  E  E
--------------------------|--------------------------|
--------------------------|--------------------------|
--------------------------|--------------------------|
--------------------------|--------------------------|
-----------------4--3--2--|-----3--3--2-----2--2--1--|
--0--0--0--0--0--4--3--2--|--0--3--3--2--0--2--2--1--|


  E  E  E  E  E  E  E  E     E  E  E  E  E  E  E  E     E   E  Q
--------------------------|--------------------------|--------------|
--------------------------|--------------------------|--------------|
--------------------------|--------------------------|--------------|
--------------------------|--------------------------|--------------|
-----------------4--4--3--|-----3--3--2-----2--2--1--|--------------|
--0--0--0--0--0--4--4--3--|--0--3--3--2--0--2--2--1--|--1p--0--0----|


    \2                                      \2
    W                   W                   W
|--------------------|-------------------|-------------------|
|--------------------|-------------------|-------------------|
|*--4----------------|--L----------------|--4----------------|
|*--2----------------|--L----------------|--2----------------|
|---2----------------|--L----------------|--2----------------|
|---0----------------|--L----------------|--0----------------|


  E  E  Q    H             E  E  Q    H
-----------------------||----------------------|-----------||
-----------------------||----------------------|-----------||
----------------------*||----------------------|-----------||
----------------------*||----------------------|-----------||
--2--3-----------------||--2--3----------------|-----------||
--0--1-----------------||--0--1----------------|-----------||


ENJOY
Tap to rate this tab
 
# A B C D E F G H I J K L M N O P Q R S T U V W X Y Z