Song name
# A B C D E F G H I J K L M N O P Q R S T U V W X Y Z

Slayer - Silent Scream tab

INTRO
|------------------------------------------|
|------------------------------------------|
|--4--3-----------------------4--3---------|
|--4--3-----------------------4--3---------|
|--2--1-----------------------2--1---------|
|-------000000000000000000000--------------|

|-----------------------------------------------------------------|
|-----------------------------------------------------------------|
|-----------------------------------------------------------------|
|-9--8----10--4--3--9--8----7--4--3--9--8----10--4--3--9--8--7----|
|--7--6--8----2--1---7--6--5---2--1---7--6--8----2--1---7--6--5---|
|-----------------------------------------------------------------|

Chorus

|-----------------------------------------|
|-----------------------------------------|
|-----------------------------------------|
|-5--4---4--2--4--2--4--2--4--5---5--4----|
|-3--2---2--0--2--0--2--0--2--3---3--2----|
|---—-------------------------------------|

|------------------------------|
|------------------------------|
|------------------------------|
|-9--7--9--7--7--5--7--10------|
|-7--5--7--5--9--7--9--8-------|
|------------------------------|

Solo Rhythm

|------------------------------------------------------|
|------------------------------------------------------|
|------------------------------------------------------|
|-4-2-4-2-4-2-4-5-4-2-4-2-4-2-4-5-4-2-4-2-4-2-4-5------|
|-2-0-2-0-2-0-2-3-2-0-2-0-2-0-2-3-2-0-2-0-2-0-2-3------|
|------------------------------------------------------|

|------------------------------------------------------|
|------------------------------------------------------|
|------------------------------------------------------|
|-6--3---6------------6--3---4-------------6--3--2-----|
|--4--5-4--------------4--5-2---------------4--5--4----|
|----------0000000000----------00000000000-------------|

|------------------------------------------------------|
|------------------------------------------------------|
|------------------------------------------------------|
|-4-2-4-2-4-2-4-5-4-2-4-2-4-2-4-5-4-2-4-2-4-2-4-5------|
|-2-0-2-0-2-0-2-3-2-0-2-0-2-0-2-3-2-0-2-0-2-0-2-3------|
|------------------------------------------------------|

After the solo

|------------------------------------------------------|
|------------------------------------------------------|
|-----------------------------7-6----------------------|
|--------------7-8------------7-6------------7/8-------|
|-2------------7-8------------5-4------------7/8-------|
|-0-0000000000-5-6-0000000000-----0000000000-5/6-------|

It was a hard song to tab so please leave your comments and corrections it would be very 
much appreciated.also i didnŽt put were you need to palm mute but it think that is easy 
to find out just hear the song an youŽll see
Tap to rate this tab
 
# A B C D E F G H I J K L M N O P Q R S T U V W X Y Z