Song name
# A B C D E F G H I J K L M N O P Q R S T U V W X Y Z

Slayer - Disciple tab

Song: Disciple
Artist: Slayer
Album: God Hates Us All
Tuning: C# (C#, F#, B, E, G#, C#)

This has easily gotta be both one of my favorite songs by Slayer
and one of my favorite songs to play. Best way to learn is to play
it to the music, also the smartest way, and I include the solo in
that too. Other than that here's Disciple.

Intro:
|--------------|
|--------------|
|--------------|
|-------3--2---|
|5-2--5-1--0-5-|
|3-0--3------3-|

Main Riff:
      x8
|--------------|
|--------------|
|--------------|
|--------9-----|
|----------8-7-|
|000-000-------|
 ... ...

Interlude:
x1
|------------------|
|------------------|
|------------------|
|9-----8-----7-----|
|--8-7---7-6---6-5-|
|------------------|
   . .   . .   . .

Verse 1:
x12
|----------------|
|----------------|
|----------------|
|----------------|
|----------------|
|3-3-2-0-3-4-3-0-|
 . . . . . . . .

Pre-Chorus:
x2
Kerry
|--------------------|
|--------------------|
|--------------------|
|--------------------|
|--------------------|
|000--000---000--000-|
 ...  ...   ...  ...

Jeff *Gallops same time as Kerry then uses whammy*
|--------------------|
|555~~555~~~555~~555~|
|--------------------|
|--------------------|
|--------------------|
|--------------------|

Interlude:
If desired, play the E5s and slide down if not abe to play all in time.
x4
|----------------|
|----------------|
|----------------|
|----------------|
|4-4-5-6---------|
|2-2-3-4-0-0-0-0-|
         . . . .

Verse 2:
x12
|----------------|
|----------------|
|----------------|
|----------------|
|----------------|
|3-3-2-0-3-4-3-0-|
 . . . . . . . .

Pre-Chorus Part 1:
Kerry
|----------------|
|----------------|
|----------------|
|----------------|
|----------------|
|000-000-0-0-0-0-|
 ... ... . . . .

Jeff
|----------------|
|----------------|
|----------------|
|----------------|
|----------------|
|000-000---------|
 ... ...

Pre-Chorus Part 2:
Kerry
|--------------------|
|--------------------|
|--------------------|
|--------------------|
|--------------------|
|000--000---000--000-|
 ...  ...   ...  ...

Jeff *Gallops same time as Kerry then uses whammy*
|--------------------|
|555~~555~~~555~~555~|
|--------------------|
|--------------------|
|--------------------|
|--------------------|

Main Riff:
x8
|--------------|
|--------------|
|--------------|
|--------9-----|
|----------8-7-|
|000-000-------|
 ... ...

SOLO:
Kerry (Rhythm)
x8
|----------------|
|----------------|
|----------------|
|----------------|
|4-4-5-6---------|
|2-2-3-4-0-0-0-0-|
         . . . .

At same time as last note in solo
|----------------|
|----------------|
|----------------|
|----------------|
|5~~~~~~---------|
|3~~~~~~---------|

Jeff (Lead)
|19b-19b-16-16-16-17-19-17-16-14-14-15-17-|
|-----------------------------------------|
|-----------------------------------------|
|-----------------------------------------|
|-----------------------------------------|
|-----------------------------------------|

|15-14-15-14----------------------------------|
|------------17-14-14-15-17-17-15-14----------|
|------------------------------------16-14-16~|
|---------------------------------------------|
|---------------------------------------------|
|---------------------------------------------|

*With Wah, But Can Still Be Played Without It*
|------------------------------------------|
|------------------------------------------|
|------------------------------------14----|
|---------14-------14-15----14-15-16----15-|
|14-15-17----15-16-------17----------------|
|------------------------------------------|

|--------------------------------14-14-15--|
|----------------------14-15-17------------|
|---14-15-----14-15-17---------------------|
|17-------17-------------------------------|
|------------------------------------------|
|------------------------------------------|
                            With Whammy
|17-15-14---------------------------------|
|---------17-15-14------------------------|
|------------------16-14-16~~~~~----------|
|-----------------------------------------|
|-----------------------------------------|
|-----------------------------------------|

Interlude:
x1
Kerry 
|-----------------------------------------------------|
|-----------------------------------------------------|
|-----------------------------------------------------|
|-----------------------------------------------------|
|-----------------------------------------------------|
|3p2-000-3p2-000-3322222222-3p2-000-3p2-000-3366666666|
 . . ... . . ... .......... . . ... . . ... ..........

Jeff
   *Harmonic* Let ring
|----------------|
|-5*~~~~~~~~~~~~-|
|----------------|
|----------------|
|----------------|
|----------------|

x1
Kerry
|-----------------------------------------------------|
|-----------------------------------------------------|
|-----------------------------------------------------|
|-----------------------------------------------------|
|---------------------------------------------------6-|
|3p2-000-3p2-000-3322222222-3p2-000-3p2-000-3p2-000-4-|
 . . ... . . ... .......... . . ... . . ... .......

Jeff
Do not let ring
|-----------------------------------------------------|
|-----------------------------------------------------|
|-----------------------------------------------------|
|-----------------------------------------------------|
|5-------5------------------5-------5-------5-------6-|
|3-------3------------------3-------3-------3-------4-|

Verse 3:
x3
|--------------------------------|
|--------------------------------|
|--------------------------------|
|--------------------------------|
|------------------------77777777|
|000000000000000000000000--------|
 ................................

x1
|--------------------------------|
|--------------------------------|
|--------------------------------|
|--------------------------------|
|--------------------------------|
|55555555444444440000000011111111|
 ................................

x3
|--------------------------------|
|--------------------------------|
|--------------------------------|
|--------------------------------|
|------------------------77777777|
|000000000000000000000000--------|
 ................................

x1
|--------------------------------|
|--------------------------------|
|--------------------------------|
|--------------------------------|
|--------------------------------|
|55555555444444440000000011111111|
 ................................

Chorus:
x2
|------------------------------|
|------------------------------|
|------------------------------|
|------------------2~~-3~~-2~~-|
|2~~-7~~-6~~-7-6~~-0~~-1~~-0~~-|
|0~~-5~~-4~~-5-4~~-------------|

Verse 4:
x8
|----------------|
|----------------|
|----------------|
|----------------|
|4-4-5-6---------|
|2-2-3-4-0-0-0-0-|
         . . . .

Chorus:
x2
|------------------------------|
|------------------------------|
|------------------------------|
|------------------2~~-3~~-2~~-|
|2~~-7~~-6~~-7-6~~-0~~-1~~-0~~-|
|0~~-5~~-4~~-5-4~~-------------|

Then Slower x1 with feed back on last powerchord
|------------------------------|
|------------------------------|
|------------------------------|
|------------------2~~-3~~-2~~-|
|2~~-7~~-6~~-7-6~~-0~~-1~~-0~~-|
|0~~-5~~-4~~-5-4~~-------------|

Outro Part 1:
May or may not be palm muted
Jeff Only:
|--------------------------------|
|--------------------------------|
|--------------------------------|
|--------------------------------|
|--------------------------------|
|3-3-3-6-6-6-2-2-2-2-2-2-2-2-2-2-|

|--------------------------------|
|--------------------------------|
|--------------------------------|
|--------------------------------|
|--------------------------------|
|3-3-3-6-6-6-5-5-5-2-2-2-2-2-2-2-|

|--------------------------------|
|--------------------------------|
|--------------------------------|
|--------------------------------|
|--------------------------------|
|3-3-3-6-6-6-5-5-5-6-6-6-2-2-2-2-|

|--------------------------------|
|--------------------------------|
|--------------------------------|
|--------------------------------|
|--------------------------------|
|3-3-3-6-6-6-2-2-2-2-2-2-2-2-2-2-|

Outro Part 2:
|--------------------------------|
|--------------------------------|
|--------------------------------|
|--------------------------------|
|5-5-5-8-8-8-4-4-4-4-4-4-4-4-4-4-|
|3-3-3-6-6-6-2-2-2-2-2-2-2-2-2-2-|

|--------------------------------|
|--------------------------------|
|--------------------------------|
|--------------------------------|
|5-5-5-8-8-8-7-7-7-4-4-4-4-4-4-4-|
|3-3-3-6-6-6-5-5-5-2-2-2-2-2-2-2-|

|--------------------------------|
|--------------------------------|
|--------------------------------|
|--------------------------------|
|5-5-5-8-8-8-7-7-7-8-8-8-4-4-4-4-|
|3-3-3-6-6-6-5-5-5-6-6-6-2-2-2-2-|

|--------------------------------|
|--------------------------------|
|--------------------------------|
|--------------------------------|
|5-5-5-8-8-8-4-4-4-4-4-4-4-4-4-4-|
|3-3-3-6-6-6-2-2-2-2-2-2-2-2-2-2-|

|--------------------------------|
|--------------------------------|
|--------------------------------|
|--------------------------------|
|5-5-5-8-8-8-4-4-4-4-4-4-4-4-4-4-|
|3-3-3-6-6-6-2-2-2-2-2-2-2-2-2-2-|

|--------------------------------|
|--------------------------------|
|--------------------------------|
|--------------------------------|
|5-5-5-8-8-8-7-7-7-4-4-4-4-4-4-4-|
|3-3-3-6-6-6-5-5-5-2-2-2-2-2-2-2-|

|--------------------------------|
|--------------------------------|
|--------------------------------|
|--------------------------------|
|5-5-5-8-8-8-7-7-7-8-8-8-4-4-4-4-|
|3-3-3-6-6-6-5-5-5-6-6-6-2-2-2-2-|

|--------------------------------|
|--------------------------------|
|--------------------------------|
|--------------------------------|
|5-5-5-8-8-8-4-4-4-4-4-4-4-4-4-4-|
|3-3-3-6-6-6-2-2-2-2-2-2-2-2-2-2-|
             . . . . . . . . . . 

Well there you go. 
SLAYER
Tap to rate this tab
# A B C D E F G H I J K L M N O P Q R S T U V W X Y Z