Song name
# A B C D E F G H I J K L M N O P Q R S T U V W X Y Z

Slayer - Metal Storm tab

Help us improve GuitareTab! Take a short survey!
Metal storm
by, Slayer
tab by Ben Healey

tune half step down
Key
 tremelo picking-.
 pull off-p
 slide-/ or \
 Palm mute-m



   |--------------------------------------------------------------|
   |--------------------------------------------------------------|
   |--------------------------------------------------------------|2x
   |--------------2------------------------------2-----------5--4-|
   |-----------------2--3--3--5--0------------------2--3--3-------|
   |--0-0-0-0-0-----------------------0-0-0-0-0-------------------|
   

   |---------------------------------------|
   |---------------------------------------|22x
   |---------------------------------------| or just memorize the way
   |---------------------------------------| the drums and bass lines
   |-7--9--10--7--9------7-----------------| go.
   |-----------------10-----8--10--7--8--5-|


   |--------------|   |-------------------------------|
   |--------------|   |-------------------------------|
   |--------------|8x |-------------------------------|2x
   |------------2-|   |-------------------------------|
   |------------0-|   |-----------7--5----------5--7--|
   |--22-22-22----|   |---333333--5--3--000000--3--5--|


   |--------------|   |-------------------------------|
   |--------------|   |-------------------------------|
   |--------------|4x |-------------------------------|2x
   |------------2-|   |-------------------------------|
   |------------0-|   |-----------7--5----------5--7--|
   |--22-22-22----|   |---333333--5--3--000000--3--5--|   


   |--------------|   |-----------------------|
   |--------------|   |-----------------------|
   |--------------|4x |-----------------------|4x
   |------------2-|   |--2-2-2-2--------4--3--|
   |------------0-|   |--0-0-0-0--6--5--2--1--|
   |--22-22-22----|   |-----------4--3--------|
                         m m m m  m  m  m  m

   |-------------------------------|
   |-------------------------------|
   |-------------------------------|8x
   |--------------7-----6-6--4-----|
   |------6-6--8----------------5--|
   |---0-------------0-------------|


   |----------------------------------|
   |----------------------------------|
   |----------------------------------|
   |-------3>-----<3-------3>-----<3--|
   |--2-2--1>-----<1--2-2--1>-----<1--|
   |--0-0-------------0-0-------------|


   |-------------------------------|
   |-------------------------------|
   |-------------------------------|2x
   |--------------7-----6-6--4-----|
   |------6-6--8----------------5--|
   |---0-------------0-------------|

   |-------------------------|
   |-------------------------|
   |-------------------------|3x
   |--------5--7--------5--6-|
   |--------3--5--------3--4-|
   |--0000---0----0000---0---|
      ....   .    ....   .

   |-------------------------|
   |-------------------------|
   |-------------------------|
   |------------6--3---------|
   |------0--6---------------|
   |-0000--------------------|
     ....

   |-------------------------------|
   |-------------------------------|
   |-------------------------------|4x
   |--------------7-----6-6--4-----|
   |------6-6--8----------------5--|
   |---0-------------0-------------|


   |----------------------------------|
   |----------------------------------|
   |----------------------------------|
   |-------3>-----<3-------3>-----<3--|
   |--2-2--1>-----<1--2-2--1>-----<1--|
   |--0-0-------------0-0-------------|

   |-------------------------------|
   |-------------------------------|
   |-------------------------------|2x
   |--------------7-----6-6--4-----|
   |------6-6--8----------------5--|
   |---0-------------0-------------|


   |-------------------------|
   |-------------------------|Play 6 times during solo
   |-------------------------|
   |--------5--7--------5--6-|
   |--------3--5--------3--4-|
   |--0000---0----0000---0---|
      ....   .    ....   .

   |---------------------------------|
   |---------------------------------|
   |---------------------------------|2x during solo
   |------5---4---3-2-----5---4--3/2-|
   |--5---3---2---1-0-5---3---2--1p0-|
   |--3---------------3--------------|

   |---------------------------------|
   |---------------------------------|
   |---------------------------------|2x
   |---------------------------------|
   |-----333322221100----333322221100|
   |-4444------------4444------------|
     ................................

   |-------------------------|
   |-------------------------|
   |-------------------------|4x
   |-------------------------|
   |-------------3-2-1-5-4-3-|
   |-1-2-3-5-4-3-------------|
     . . . . . . . . . . . .

   |--------------------|
   |--------------------|
   |--------------------|2x
   |-------3---------3--|
   |-------1---4--3--1--|
   |-1-3-2-1---2--1--1--|

bridge
   |--------------------|
   |--------------------|
   |--------------------|
   |--------------------|
   |---4--3-------------|
   |---2--1-------------|

                                   _
   |-----------------------------|  |
   |-----------------------------|  |
   |-----------------------------|  |
   |-----------8----------765----|  | 
   |-567567567-6-567567567---987-|  | 
   |-----------------------------|  |
     .........   ...............    |repeat both in order 4x
                                    |
   |-----------------------------|  |
   |-----------------------------|  |
   |-----------------------------|  |
   |-----------8-----------7-8---|  |
   |-567567567-6-567567567-5-6---|  |
   |-----------------------------|  |
     .........   .........         _|

   |-------------------------|
   |-------------------------|
   |-------------------------|2x
   |-------------------------|
   |--------7//5--------5//7-|
   |-333333-5//3-000000-3//5-|
     ......      ......

                                   _
   |-----------------------------|  |
   |-----------------------------|  |
   |-----------------------------|  |
   |-----------8----------765----|  | 
   |-567567567-6-567567567---987-|  | 
   |-----------------------------|  |
     .........   ...............    |repeat both in order 4x
                                    |
   |-----------------------------|  |
   |-----------------------------|  |
   |-----------------------------|  |
   |-----------8-----------7-8---|  |
   |-567567567-6-567567567-5-6---|  |
   |-----------------------------|  |
     .........   .........         _|

   |-----------------------|
   |-----------------------|
   |-----------------------|4x
   |--2-2-2-2--------4--3--|palm mute a little little bit
   |--0-0-0-0--6--5--2--1--|
   |-----------4--3--------|


   |-------------------------------------------------------|
   |-------------------------------------------------------|
   |-------------------------------------------------------|
   |---------3----------2----------3----------5----------4-|
   |---------1----------0----------1----------3----------2-|
   |22222222---22222222---22222222---22222222---22222222---|
    ........   ........   ........   ........   ........

   |--------------------------------------------|
   |-----------------7-9-10-7-9----7------------|
   |----------------------------10---8-10-7-8-5-|The end.
   |----3----5----6-----------------------------|
   |----1----4----4-----------------------------|
   |-22---22---22-------------------------------|
     ..   ..   ..
Related for Metal Storm tab