Song name
# A B C D E F G H I J K L M N O P Q R S T U V W X Y Z

Slayer - In The Name Of God tab

tuning drop d flat. Db Ab Db GB Bb Eb

i played along to the cd and listened for differences in tone and it sounds pretty 
close. the ones in standard tuning or standard flat sounded too high. i dropped D flat and it 
sounds just like the cd.

im not sure about the  333444111 and the 44433311 part but its close.


intro/Verse
|-------------------------------------------------------------|
|-------------------------------------------------------------|
|-------------------------------------------------------------|
|-------------------------------------------------------------|
|-3-0-0-----0-1-2-0-3-0-0------|-3-0-0-----0-1-2-0-3-0-0------|
|-3-0-0-----0-1-2-0-3-0-0------|-3-0-0-----0-1-2-0-3-0-0------|

|---------------|
|---------------|
|---------------|
|---------------|
3-3-3-4-4-4-1-1-|
3-3-3-4-4-4-1-1-|


|-------------------------------------------------------------|
|-------------------------------------------------------------|
|-------------------------------------------------------------|
|-------------------------------------------------------------|
|-3-0-0-----0-1-2-0-3-0-0------|-3-0-0-----0-1-2-0-3-0-0------|
|-3-0-0-----0-1-2-0-3-0-0------|-3-0-0-----0-1-2-0-3-0-0------|


|-----------------|
|-----------------|
|-----------------|
|-----------------|
|-4-4-4-3-3-3-1-1-|
|-4-4-4-3-3-3-1-1-|
Tap to rate this tab
 
# A B C D E F G H I J K L M N O P Q R S T U V W X Y Z