Song name
# A B C D E F G H I J K L M N O P Q R S T U V W X Y Z

Slayer - Implode tab

implode


slayer


TRANSCRIBED BY RUDY GUZMAN


guzman_84@hotmail.com



tuning 4 steps down

                                                 x4
:-------------------------------------------------|
:-------------------------------------------------|
:-------------------------------------------------|
:-------------------------------------------------|
:-----6--------7-6---6-7--2-2-2-2-2-2-2-2-2-2-2-2-|
:-6h7---7--6h7-----7------0-0-0-0-0-0-0-0-0-0-0-0-|

  
:---------------------|
:---------------------|
:---------------------|
:---------------------|
:-7-5---5-5---4-5---5-|
:-5-3-0-3-3-0-2-3-0-3-|


  so is it just me or everyone can see the world
:--------------------------------------------|
:--------------------------------------------|
:--------------------------------------------|
:--------------------------------------------|
:-2-2-2-2-2-2------6----2-2-2-2-2-2------6-7-|
:-0-0-0-0-0-0--6h7---7--0-0-0-0-0-0--6h7-----|

   drowning in its own blood 
:--------------------------------------------|
:--------------------------------------------|
:--------------------------------------------|
:--------------------------------------------|
:-2-2-2-2-2-2------6----8-7---7-5-5---5h6p5--|
:-0-0-0-0-0-0--6h7---7--6-5-0-5-3-3-3--------|
  
   humanity...
:--------------------------------------------|
:--------------------------------------------|
:--------------------------------------------|
:--------------------------------------------|
:-2-2-2-2-2-2------6----2-2-2-2-2-2------6-7-|
:-0-0-0-0-0-0--6h7---7--0-0-0-0-0-0--6h7-----|

    
:--------------------------------------------|
:--------------------------------------------|
:--------------------------------------------|
:--------------------------------------------|
:-2-2-2-2-2-2------6----8-7---7-5-5---5h6p5--|
:-0-0-0-0-0-0--6h7---7--6-5-0-5-3-3-3--------|

   down
:------|
:------|
:------|
:------|
:-2----|
:-0----|

   standing...                                                 x4
:---------------------------------------------------------------|
:---------------------------------------------------------------|
:---------------------------------------------------------------|
:---------------------------------------------------------------|
:-----------------------------------------------------2h3p2-----|
:-0h1h2-2-2-2--0h1h2-2-2-2--0h1h2-2-2-2--0h1h2-2-2-2--------4p2-|


  like a fire storm...                               x2
:-------------------------------------------------------|
:-------------------------------------------------------|
:-------------------------------------------------------|
:-------------------------------------------------------|
:---------------------------------------------4h5p4-----|
:-3h5-5-5-5--3h5-5-5-5--3h5-5-5-5--3h5-5-5-5--------6p4-|

  deep down...                                       
:-------------------------------------------------------|
:-------------------------------------------------------|
:-------------------------------------------------------|
:-------------------------------------------------------|
:---------------------------------------------2h3p2-----|
:-0h1-1-1-1--0h1-1-1-1--0h1-1-1-1--0h1-1-1-1--------4p2-|

:--------------------------------------------|
:--------------------------------------------|
:--------------------------------------------|
:--------------------------------------------|
:--------------------------------------------|
:-0h1-1-1-1--0h1-1-1-1--0h1-1-1-1--0h1-1-1-1-|

                     x3
:---------------------|
:---------------------|
:---------------------|
:---------------------|
:-3------3-6-4----4-6-|
:-1----0-1-4-2--0-2-4-|


                                                                 x4
:-----------------------------------------------------------------|
:-----------------------------------------------------------------|
:-----------------------------------------------------------------|
:-----------------------------------------------------------------|
:-----------------------------------------------------2h3p2-------|
:-0h1h2-2-2-2--0h1h2-2-2-2--0h1h2-2-2-2--0h1h2-2-2-2--------2h4p2-|


                                                         x2
:---------------------------------------------------------|
:---------------------------------------------------------|
:---------------------------------------------------------|
:---------------------------------------------------------|
:---------------------------------------------4h5p4-------|
:-3h5-5-5-5--3h5-5-5-5--3h5-5-5-5--3h5-5-5-5--------4h6p4-|

                                         
:---------------------------------------------------------|
:---------------------------------------------------------|
:---------------------------------------------------------|
:---------------------------------------------------------|
:---------------------------------------------2h3p2-------|
:-0h1-1-1-1--0h1-1-1-1--0h1-1-1-1--0h1-1-1-1--------2h4p2-|

:--------------------------------------------|
:--------------------------------------------|
:--------------------------------------------|
:--------------------------------------------|
:--------------------------------------------|
:-0h1-1-1-1--0h1-1-1-1--0h1-1-1-1--0h1-1-1-1-|

                     x3
:---------------------|
:---------------------|
:---------------------|
:---------------------|
:-3------3-6-4----4-6-|
:-1----0-1-4-2--0-2-4-|

                                                                            x4
:----------------------------------------------------------------------------|
:----------------------------------------------------------------------------|
:----------------------------------------------------------------------------|
:----------------------------------------------------------------------------|
:-9/8----------------9/8----------------9/8--------11/9--------9/8-----------|
:-7/6-0-0-0-0-0-0-0--7/6-0-0-0-0-0-0-0--7/6-0-0-0--9-/7--0-0-0-7/6-0-0-0-0-0-|


 solo 1
                                       bar  
:------------------------------------------------------------------------|
:-----------------------7-----7-10-8---0----14~~~-----14-17-15-----14-17-|
:-/6------9--7------6-9-----8----------0----------15------------15-------|
:------7----------7------------------------------------------------------|
:------------------------------------------------------------------------|
:------------------------------------------------------------------------|

  
:-16bf-16b~~----0000-14-0000-15-0000-17-0000-19-0000-21-0000-22-24bf-24b-|
:------------------------------------------------------------------------|
:------------------------------------------------------------------------|
:------------------------------------------------------------------------|
:------------------------------------------------------------------------|
:------------------------------------------------------------------------|

                bar///////////////////////////////
:-24b-24b-24bf-----------------------------------------------|
:---------------0---------------------------------------21bf-|
:---------------0--12h14p12h14p12h14p12h14p12h14p12-12/------|
:---------------0--------------------------------------------|
:------------------------------------------------------------|
:------------------------------------------------------------|

  
:-----18-18-19-19-19-18-18-----18-18-19-19-19-19-19-----19-19-19-20-20-20-|
:-/20-----------------------20-----------------------21-------------------|
:-------------------------------------------------------------------------|
:-------------------------------------------------------------------------|
:-------------------------------------------------------------------------|
:-------------------------------------------------------------------------|

:----19-19-19-20-20-20----18-18-19-19-18-18--------------------|
:-21-------------------20--------------------21-18-19-21-19-18-|
:--------------------------------------------------------------|
:--------------------------------------------------------------|
:--------------------------------------------------------------|
:--------------------------------------------------------------|

  
:-------------------|
:-------------------|
:-20-17-18-20-18-17-|
:-------------------|
:-------------------|
:-------------------|

             bar////////////       ////// /////
:--------------------------------------------------------------|
:--------------------------------------------------------------|
:------------------------------7~~~~~--------------------------|
:-20-18-17--0--(0)----------------------0------/17---17--17-17-|
:--------------------0-(0)-------------------------------------|
:--------------------------------------------------------------|

  
:-----------------------15-15-18-18-18----15-15-18-18-18----|
:-------------------/17----------------17----------------17-|
:-----------------------------------------------------------|
:-17--17-17--17/--------------------------------------------|
:-----------------------------------------------------------|
:-----------------------------------------------------------|

:----16-16-19-19-19----16-16-19-19-19-----17-17-20-20-20-----18-18-21-21-21-|
:-18----------------18-----------------19-----------------20----------------|
:---------------------------------------------------------------------------|
:---------------------------------------------------------------------------|
:---------------------------------------------------------------------------|
:---------------------------------------------------------------------------|

  
:-----19-19-22-22-22-----20-20----------|
:-21------------------22--------0--(0)--|
:-------------------------------0--(0)--|
:---------------------------------------|
:---------------------------------------|
:---------------------------------------|

                                                               x4
:---------------------------------------------------------------|
:---------------------------------------------------------------|
:---------------------------------------------------------------|
:---------------------------------------------------------------|
:-----------------------------------------------------2h3p2-----|
:-0h1h2-2-2-2--0h1h2-2-2-2--0h1h2-2-2-2--0h1h2-2-2-2--------4p2-|


                                                       x2
:-------------------------------------------------------|
:-------------------------------------------------------|
:-------------------------------------------------------|
:-------------------------------------------------------|
:---------------------------------------------4h5p4-----|
:-3h5-5-5-5--3h5-5-5-5--3h5-5-5-5--3h5-5-5-5--------6p4-|

                                         
:-------------------------------------------------------|
:-------------------------------------------------------|
:-------------------------------------------------------|
:-------------------------------------------------------|
:---------------------------------------------2h3p2-----|
:-0h1-1-1-1--0h1-1-1-1--0h1-1-1-1--0h1-1-1-1--------4p2-|

:--------------------------------------------|
:--------------------------------------------|
:--------------------------------------------|
:--------------------------------------------|
:--------------------------------------------|
:-0h1-1-1-1--0h1-1-1-1--0h1-1-1-1--0h1-1-1-1-|


  implode!!!!        x3
:---------------------|
:---------------------|
:---------------------|
:---------------------|
:-3------3-6-4----4-6-|
:-1----0-1-4-2--0-2-4-|


  solo 2                             wah bar//////       ////
:-----------------------------------------------------------|
:----------------------------0--12-12-12/-------------------|
:-14bf----14b-14b-14b-14b~~--0--12-12-12/----------0--------|
:-----------------------------------------------------0-----|
:-----------------------------------------------------------|
:-----------------------------------------------------------|

  
:--------------------------------19bf-19b-19b-19bf/----|
:-/20~~~~----/20~~~~---0--0--0-------------------------|
:----------------------0--0--0-------------------------|
:----------------------0--0--0-------------------------|
:------------------------------------------------------|
:------------------------------------------------------|


:---------------------------------------------------|
:---------------------------------------------------|
:---------------------------------------------------|
:---------------------------------------------------|
:---------------6h7p6---------------------5h6p5-----|
:-0-0-0-0-0-0-0-------7p6--0-0-0-0-0-0-0--------6p5-|

:----------------------------------------------------------------------|
:----------------------------------------------------------------------|
:----------------------------------------------------------------------|
:----------------------------------------------------------------------|
:---------------6h7p6--------------------------------------------------|
:-0-0-0-0-0-0-0-------7p6--1/3-3-3-3-3-5-5-5-5-5-5-6-6-6-6-6-5-5-5-5-5-|
  

:---------------------------------------------------|
:---------------------------------------------------|
:---------------------------------------------------|
:---------------------------------------------------|
:---------------6h7p6---------------------5h6p5-----|
:-0-0-0-0-0-0-0-------7p6--0-0-0-0-0-0-0--------6p5-|

:----------------------------------------------------------------------|
:----------------------------------------------------------------------|
:----------------------------------------------------------------------|
:----------------------------------------------------------------------|
:---------------6h7p6--------------------------------------------------|
:-0-0-0-0-0-0-0-------7p6--1/3-3-3-3-3-5-5-5-5-5-5-6-6-6-6-6-5-5-5-5-5-|
  

:---------------------------------------------------|
:---------------------------------------------------|
:---------------------------------------------------|
:---------------------------------------------------|
:---------------6h7p6---------------------5h6p5-----|
:-0-0-0-0-0-0-0-------7p6--0-0-0-0-0-0-0--------6p5-|

:----------------------------------------------------------------------|
:----------------------------------------------------------------------|
:----------------------------------------------------------------------|
:----------------------------------------------------------------------|
:---------------6h7p6--------------------------------------------------|
:-0-0-0-0-0-0-0-------7p6--1/3-3-3-3-3-5-5-5-5-5-5-6-6-6-6-6-5-5-5-5-5-|
  
:---------------------------------------------|
:---------------------------------------------|
:---------------------------------------------|
:---------------------------------------------|
:---------------------------------------------|
:-1/3-3-3-3-3-5-5-5-5-5-5-6-6-6-6-6-5-5-5-5-5-|


:----------18b-18b--18b--18b-18b--18b--------------------|
:----------18b-18b--18b--18b-18b--18b--------------------|
:--------------------------------------------------------|
:--------------------------------------------------------|
:-2-----------------------------------------------2------|
:-0-----------------------------------15-17/------0------|




hillo son mex

24/04/14
Tap to rate this tab
 
# A B C D E F G H I J K L M N O P Q R S T U V W X Y Z