Song name
# A B C D E F G H I J K L M N O P Q R S T U V W X Y Z

Slayer - Bitter Peace tab

#----------------------------------PLEASE NOTE---------------------------------#
#This file is the author's own work and represents their interpretation of the #
#song. You may only use this file for private study, scholarship, or research. #
#------------------------------------------------------------------------------#

BITTER PEACE
As recorded by SLAYER
(From the 1998 Album DIABOLUS IN MUSICA)

Transcribed by pfiell
	

Words and Music by Hanneman

E5
0 2 x x x x
	
A5
5 7 x x x x
	
G#5
4 6 x x x x
	
F5/C
8 8 x x x x

E5/B
7 7 x x x x
	
G5/D
10 10 x x x x
	
D5/A
5 5 x x x x
	
F5
1 3 x x x x

F#5
2 4 4 x x x
	
G5
3 5 5 x x x
	
E5(type 2)
0 2 2 x x x
	
B5
7 9 9 x x x

Bb5
6 8 8 x x x
	
F5(type 2)
1 3 3 x x x

Gtr I (Db Gb B E Ab Db) - 'Gtr. 1 W/Distortion'
Gtr II (Db Gb B E Ab Db) - 'Gtr. 2 W/Distortion'

   Intro
    Q=80                  1.,2.
    E5F#5   FEFF5E5A5  G#5 E5F#5   FEFF5E5A5  G#5
   4/4
    Gtr II
    H       E.   S S S E   H       E.   S S S E
                 | | | |                | | | |
                 / / / /                / / / /

    Gtr I
    E E E E E  S S S S E   E E E E E  S S S S E  3x
||-----------------------|-----------------------||
||o----------------------|----------------------o||
||-----------------------|-----------------------||
||-----------------------|-----------------------||
||o-2-4-3-2-4--3-2-7-7-6-|-2-4-3-2-4--3-2-7-7-6-o||
||--0-2-1-0-2--1-0-5-5-4-|-0-2-1-0-2--1-0-5-5-4--||


    3.
    E5F#F5E5F#F5E5A5  G#5 E5F#F5E5F#F5E5A5  G#5
    Gtrs I, II
    E E E E E S S S S E   E E E E E S S S S E
||----------------------|----------------------||
||o---------------------|---------------------o||
||----------------------|----------------------||
||----------------------|----------------------||
||o-2-4-3-2-4-3-2-7-7-6-|-2-4-3-2-4-3-2-7-7-6-o||
||--0-2-1-0-2-1-0-5-5-4-|-0-2-1-0-2-1-0-5-5-4--||


  G5BbA5G5BbA5G#F5  G5BbA5G5BbA5G#F5
  E E E E E E E E   E E E E E E E E
|-----------------|-----------------|
|-----------------|-----------------|
|-----------------|-----------------|
|-----------------|-----------------|
|-5-8-7-5-8-7-6-3-|-5-8-7-5-8-7-6-3-|
|-3-6-5-3-6-5-4-1-|-3-6-5-3-6-5-4-1-|


  G5BbA5G5BbA5G#F5  G5BbA5F5
  E E E E E E E E   E E E E S S S S S S S S
|-----------------|-------------------------|
|-----------------|-------------------------|
|-----------------|-------------------------|
|-----------------|-------------------------|
|-5-8-7-5-8-7-6-3-|-5-8-7-3-------5-4-------|
|-3-6-5-3-6-5-4-1-|-3-6-5-1-3-5-6-----5-4-1-|


  E5F#F5E5F#F5E5A5  G#5 E5F#F5E5F#F5E5A5  G#5 E5F#F5E5F#F5E5A5  G#5
  E E E E E S S S S E   E E E E E S S S S E   E E E E E S S S S E
|---------------------|---------------------|----------------------|
|---------------------|---------------------|----------------------|
|---------------------|---------------------|----------------------|
|---------------------|---------------------|----------------------|
|-2-4-3-2-4-3-2-7-7-6-|-2-4-3-2-4-3-2-7-7-6-|-2-4-3-2-4-3-2-7-7-6--|
|-0-2-1-0-2-1-0-5-5-4-|-0-2-1-0-2-1-0-5-5-4-|-0-2-1-0-2-1-0-5-5-4--|


  G5BbA5G5BbA5G#F5  G5BbA5F5
  E E E E E E E E   E E E E S S S S S S S S
|-----------------|-------------------------|
|-----------------|-------------------------|
|-----------------|-------------------------|
|-----------------|-------------5-----------|
|-5-8-7-5-8-7-6-3-|-5-8-7-3-4-5---4-3-------|
|-3-6-5-3-6-5-4-1-|-3-6-5-1-----------5-4-1-|


    E5F#F5E5F#F5E5A5  G#5 E5F#F5E5F#F5E5A5  G#5
    E E E E E S S S S E   E E E E E S S S S E
||----------------------|----------------------||
||o---------------------|---------------------o||
||----------------------|----------------------||
||----------------------|----------------------||
||o-2-4-3-2-4-3-2-7-7-6-|-2-4-3-2-4-3-2-7-7-6-o||
||--0-2-1-0-2-1-0-5-5-4-|-0-2-1-0-2-1-0-5-5-4--||


 Breakdown
  E5
  W          +W           +W           +W           +W
|----------|------------|------------|------------|--------|
|----------|------------|------------|------------|--------|
|----------|------------|------------|------------|--------|
|-2--------|-(2)--------|-(2)--------|-(2)--------|-(2)----|
|-2--------|-(2)--------|-(2)--------|-(2)--------|-(2)----|
|-0--------|-(0)--------|-(0)--------|-(0)--------|-(0)----|


  +W           +W           +W           +W
|------------|------------|------------|--------||
|------------|------------|------------|--------||
|------------|------------|------------|--------||
|-(2)--------|-(2)--------|-(2)--------|-(2)----||
|-(2)--------|-(2)--------|-(2)--------|-(2)----||
|-(0)--------|-(0)--------|-(0)--------|-(0)----||


   Interlude
    Q=200
    E5            A5G5/E5  F5
      PM--------|
    E S S S S S S E Q  E   W     3x
||-----------------------|-------||
||o----------------------|------o||
||-----------------------|-------||
||----------------7-5----|-------||
||o-2-------------7-5--2-|-3----o||
||--0-0-0-0-0-0-0------0-|-1-----||


  E5                     E5
  Gtr II
  W                      W
  Gtr I
    PM--------|   ~~       PM--------|    ~~
  E S S S S S S E Q.     E S S S S S S  E Q.
|----------------------|-----------------------|
|----------------------|-----------------------|
|----------------------|-----------------------|
|----------------------|-----------------------|
|-2-------------8-7----|-2-------------10-8----|
|-0-0-0-0-0-0-0--------|-0-0-0-0-0-0-0---------|


  E5                            E5F5
  W                      H      E Q.
                                | |
                                / /

    PM--------|   ~~       ~~
  E S S S S S S E Q.     E Q.   E Q.
|----------------------|---------------|
|----------------------|---------------|
|----------------------|---------------|
|----------------------|---------------|
|-2-------------8-7----|-5-7----2-3----|
|-0-0-0-0-0-0-0--------|--------0-1----|


  E5             F5E5/B   E5             G5/F5/C
  E Q.           E Q.     E Q.            E Q.
  |              | |      |               | |
  /              / /      /               / /

    PM---------|            PM---------|
  E S  S S S S S E Q.     E S  S S S S S  E Q.
|-----------------------|------------------------|
|-----------------------|------------------------|
|-----------------------|------------------------|
|-----------------------|------------------------|
|-2--------------8-7----|-2--------------10-8----|
|-0-0--0-0-0-0-0--------|-0-0--0-0-0-0-0---------|


  E5             F5E5/B   D5E5/B E5F5
  E Q.           E Q.     E Q.   E Q.
  |              | |      | |    | |
  /              / /      / /    / /

    PM---------|
  E S  S S S S S E Q.     E Q.   E Q.
|-----------------------|---------------|
|-----------------------|---------------|
|-----------------------|---------------|
|-----------------------|---------------|
|-2--------------8-7----|-5-7----2-3----|
|-0-0--0-0-0-0-0--------|--------0-1----|


 Verse
  Gtrs I, II
  PM--------|   PM--------------------|   PM--------------------|   PM------|
  |----6----| |----6----|   |----6----| |----6----|   |----6----| |----6----|
  E E E E E E E E E E E E   E E E E E E E E E E E E   E E E E E E E E E E E E
|-------------------------|-------------------------|--------------------------|
|-------------------------|-------------------------|--------------------------|
|-------------------------|-------------------------|--------------------------|
|-------------------------|-------------------------|--------------------------|
|-------------6-----------|-------------8-----------|-------------6------------|
|-0-0-0-0-0-0---0-0-0-0-0-|-0-0-0-0-0-0---0-0-0-0-0-|-0-0-0-0-0-0---0-0-0-0-0--|


                            PM--------|   PM--------------------|   PM------|
  |----6----| |----6----|   |----6----| |----6----|   |----6----| |----6----|
  E E E E E E E E E E E E   E E E E E E E E E E E E   E E E E E E E E E E E E
|-------------------------|-------------------------|--------------------------|
|-------------------------|-------------------------|--------------------------|
|-------------------------|-------------------------|--------------------------|
|-------------------------|-------------------------|--------------------------|
|-------------------------|-------------6-----------|-------------8------------|
|-3-3-3-3-3-3-3-1-1-1-1-1-|-0-0-0-0-0-0---0-0-0-0-0-|-0-0-0-0-0-0---0-0-0-0-0--|


                            D5E5/B E5F5
  PM--------|   PM------|
  |----6----| |----6----|
  E E E E E E E E E E E E   E Q.   E Q.
|-------------------------|---------------|
|-------------------------|---------------|
|-------------------------|---------------|
|-------------------------|---------------|
|-------------6-----------|-5-7----2-3----|
|-0-0-0-0-0-0---0-0-0-0-0-|-5-7----0-1----|


  PM--------|   PM--------------------|   PM---------
  |----6----| |----6----|   |----6----| |----6----|
  E E E E E E E E E E E E   E E E E E E E E E E E E
|-------------------------|-------------------------|
|-------------------------|-------------------------|
|-------------------------|-------------------------|
|-------------------------|-------------------------|
|-------------6-----------|-------------8-----------|
|-0-0-0-0-0-0---0-0-0-0-0-|-0-0-0-0-0-0---0-0-0-0-0-|


 -----------|   PM------|
  |----6----| |----6----|   |----6----| |----6----|
  E E E E E E E E E E E E   E E E E E E E E E E E E
|-------------------------|----------------------------|
|-------------------------|----------------------------|
|-------------------------|----------------------------|
|-------------------------|----------------------------|
|-------------6-----------|----------------------------|
|-0-0-0-0-0-0---0-0-0-0-0-|-3-3-3-3-3-3-3-1-1-1-1-1----|


  PM--------|   PM--------------------|   PM---------
  |----6----| |----6----|   |----6----| |----6----|
  E E E E E E E E E E E E   E E E E E E E E E E E E
|-------------------------|-------------------------|
|-------------------------|-------------------------|
|-------------------------|-------------------------|
|-------------------------|-------------------------|
|-------------6-----------|-------------8-----------|
|-0-0-0-0-0-0---0-0-0-0-0-|-0-0-0-0-0-0---0-0-0-0-0-|


                                        E5F5
 -----------|   PM------|
  |----6----| |----6----|   |----6----|
  E E E E E E E E E E E E   E E E E E E E Q.
|-------------------------|---------------------|
|-------------------------|---------------------|
|-------------------------|---------------------|
|-------------------------|---------------------|
|-------------6-----------|-------------2-3-----|
|-0-0-0-0-0-0---0-0-0-0-0-|-3-3-3-3-3-3-0-1-----|


 Chorus
  PM----------------------|       PM--------------------------|       PM
  E E E E E E E E   E E E E E E E E   E E E E E E E E   E E E E E E E E
|-----------------|-----------------|-----------------|-----------------|
|-----------------|-----------------|-----------------|-----------------|
|-----------------|-----------------|-----------------|-----------------|
|-----------------|-----------------|-----------------|-----------------|
|-----------------|---------2-1-0---|-----------------|---------3-2-1---|
|-3-2-0-2-3-2-0-2-|-3-2-0-2-------2-|-3-2-0-2-3-2-0-2-|-3-2-0-2-------2-|


  PM----------------------|       PM
  E E E E E E E E   E E E E E E E E
|-----------------|-----------------|
|-----------------|-----------------|
|-----------------|-----------------|
|-----------------|-----------------|
|-----------------|---------4-3-2---|
|-3-2-0-2-3-2-0-2-|-3-2-0-2-------2-|


                  A5G5/D   E5F5
      PM--------|
                           |------6-------|  |------6-------|
    E S S S S S S E Q.     E  E  E  E  E  E  E  E  E  E  E  E  3x
||-----------------------|-------------------------------------||
||o----------------------|------------------------------------o||
||-----------------------|-------------------------------------||
||----------------7-5----|-9-10-10-10-10-10-10-10-10-10-10-10--||
||o---------------7-5----|-7--8--8--8--8--8--8--8--8--8--8--8-o||
||--0-0-0-0-0-0-0--------|-------------------------------------||


  G5                    F#5
    PM----|   PM----|     PM----|   PM----|
  E E S S E E E S S E   E E S S E E E S S E
|---------------------|---------------------|
|---------------------|---------------------|
|---------------------|---------------------|
|---------------------|---------------------|
|-5---------5---------|-4---------4---------|
|-3-3-3-3-3-3-3-3-3-3-|-2-2-2-2-2-2-2-2-2-0-|


 Verse
  PM--------|   PM--------------------|   PM--------------------|   PM------|
  |----6----| |----6----|   |----6----| |----6----|   |----6----| |----6----|
  E E E E E E E E E E E E   E E E E E E E E E E E E   E E E E E E E E E E E E
|-------------------------|-------------------------|--------------------------|
|-------------------------|-------------------------|--------------------------|
|-------------------------|-------------------------|--------------------------|
|-------------------------|-------------------------|--------------------------|
|-------------6-----------|-------------8-----------|-------------6------------|
|-0-0-0-0-0-0---0-0-0-0-0-|-0-0-0-0-0-0---0-0-0-0-0-|-0-0-0-0-0-0---0-0-0-0-0--|


                            PM--------|   PM--------------------|   PM------|
  |----6----| |----6----|   |----6----| |----6----|   |----6----| |----6----|
  E E E E E E E E E E E E   E E E E E E E E E E E E   E E E E E E E E E E E E
|-------------------------|-------------------------|--------------------------|
|-------------------------|-------------------------|--------------------------|
|-------------------------|-------------------------|--------------------------|
|-------------------------|-------------------------|--------------------------|
|-------------------------|-------------6-----------|-------------8------------|
|-3-3-3-3-3-3-3-1-1-1-1-1-|-0-0-0-0-0-0---0-0-0-0-0-|-0-0-0-0-0-0---0-0-0-0-0--|


                            D5E5/B E5F5
  PM--------|   PM------|
  |----6----| |----6----|
  E E E E E E E E E E E E   E Q.   E Q.
|-------------------------|---------------||
|-------------------------|---------------||
|-------------------------|---------------||
|-------------------------|---------------||
|-------------6-----------|-5-7----2-3----||
|-0-0-0-0-0-0---0-0-0-0-0-|-5-7----0-1----||


  Q=100
  E5                      E5F5                            G5F5
    PM------------------|         PM--------------------|
  E S S S S S S S S S S S S E   S S S S S S S S S S S S S S E
|-----------------------------|-------------------------------|
|-----------------------------|-------------------------------|
|-----------------------------|-------------------------------|
|-----------------------------|-------------------------------|
|-2-----------------------2-3-|---------------------------5-3-|
|-0-0-0-0-0-0-0-0-0-0-0-0-0-1-|-0-0-0-0-0-0-0-0-0-0-0-0-0-3-1-|


                            E5F5            G5F5          E5F5
      PM------------------|       PM------|     PM------|
  S S S S S S S S S S S S S S E   S S S S S S E S S S S S S E
|-------------------------------|-----------------------------|
|-------------------------------|-----------------------------|
|-------------------------------|-----------------------------|
|-------------------------------|-----------------------------|
|---------------------------2-3-|-----------5-3-----------2-3-|
|-0-0-0-0-0-0-0-0-0-0-0-0-0-0-1-|-0-0-0-0-0-3-1-0-0-0-0-0-0-1-|


 Chorus
  Q=200
  PM----------------------|       PM--------------------------|       PM
  E E E E E E E E   E E E E E E E E   E E E E E E E E   E E E E E E E E
|-----------------|-----------------|-----------------|-----------------|
|-----------------|-----------------|-----------------|-----------------|
|-----------------|-----------------|-----------------|-----------------|
|-----------------|-----------------|-----------------|-----------------|
|-----------------|---------2-1-0---|-----------------|---------3-2-1---|
|-3-2-0-2-3-2-0-2-|-3-2-0-2-------2-|-3-2-0-2-3-2-0-2-|-3-2-0-2-------2-|


                                      F#5         G5
                                      Gtr II
  W                 W                 H           H
                                      |           |
                                      /           /

                                      Gtr I
  PM----------------------|       PM
                                      |----6----| |----6----|
  E E E E E E E E   E E E E E E E E   E E E E E E E E E E E E
|-----------------|-----------------|-------------------------|
|-----------------|-----------------|-------------------------|
|-----------------|-----------------|-------------------------|
|-----------------|-----------------|-------------------------|
|-----------------|---------4-3-2---|-------------------------|
|-3-2-0-2-3-2-0-2-|-3-2-0-2-------2-|-2-2-2-2-2-2-3-3-3-3-3-3-|


  E5(type 2)  F#5           G5          B5            Bb5         F5(type 2)
  H           H             H           H             H           H
  |           |             |           |             |           |
  /           /             /           /             /           /

  |----6----| |----6----|   |----6----| |----6----|   |----6----| |----6----|
  E E E E E E E E E E E E   E E E E E E E E E E E E   E E E E E E E E E E E E
|-------------------------|-------------------------|--------------------------|
|-------------------------|-------------------------|--------------------------|
|-------------------------|-------------------------|--------------------------|
|-------------------------|-------------------------|--------------------------|
|-------------------------|-------------------------|--------------------------|
|-0-0-0-0-0-0-2-2-2-2-2-2-|-3-3-3-3-3-3-7-7-7-7-7-7-|-6-6-6-6-6-6-1-1-1-1-1-1--|


 Interlude
  E5             F5E5/B   E5             G5/F5/C
  E Q.           E Q.     E Q.            E Q.
  |              | |      |               | |
  /              / /      /               / /

    PM---------|            PM---------|
  E S  S S S S S E Q.     E S  S S S S S  E Q.
|-----------------------|------------------------|
|-----------------------|------------------------|
|-----------------------|------------------------|
|-----------------------|------------------------|
|-2--------------8-7----|-2--------------10-8----|
|-0-0--0-0-0-0-0-8-7----|-0-0--0-0-0-0-0-10-8----|


  E5             F5E5/B   D5E5/B E5F5
  E Q.           E Q.     E Q.   E Q.
  |              | |      | |    | |
  /              / /      / /    / /

    PM---------|
  E S  S S S S S E Q.     E Q.   E Q.
|-----------------------|---------------||
|-----------------------|---------------||
|-----------------------|---------------||
|-----------------------|---------------||
|-2--------------8-7----|-5-7----2-3----||
|-0-0--0-0-0-0-0-8-7----|-5-7----0-1----||


 Guitar Solo 1
  Gtr I
           ~~~
                                 |--------6--------|  |------6-------|
   Q       H.                    E  E  E  E  S  S  E  E  E  E  E  E  E
|-----------------------------|----------------------12-13-15-12-------|
|-(8)s====12------------------|-12-13-12-13-15p13p12-------------15-12-|
|-----------------------------|----------------------------------------|
|-----------------------------|----------------------------------------|
|-----------------------------|----------------------------------------|
|-----------------------------|----------------------------------------|
|
| Gtr II
|  PM-------------------------------------------------------------------
|  |-----6------| |----6----|    |--------6--------|  |------6-------|
|  E  E E  E  E E E E E E E E    E  E  E  E  E     E  E  E  E  E  E  E
|-----------------------------|----------------------------------------|
|-----------------------------|----------------------------------------|
|-----------------------------|----------------------------------------|
|-----------------------------|----------------------------------------|
|-----------------1-----------|----------------------------------------|
|--2--2-2--2--2-2---2-2-2-2-2-|--2--2--2--2--2-----2--3--3--3--3--3--3-|


   |------6-------|  |------6-------|
   E  E  E  E  E  E  E  E  E  E  E  E
|-------------------------------------|
|-13-15-13----------------13----------|
|----------15-14-15-14-15----15-14-12-|
|-------------------------------------|
|-------------------------------------|
|-------------------------------------|
|
|----------------------------------|
|  |------6-------|  |------6-------|
|  E  E  E  E  E  E  E  E  E  E  E  E
|-------------------------------------|
|-------------------------------------|
|-------------------------------------|
|-------------------------------------|
|--------------------1----------------|
|--2--2--2--2--2--2-----2--2--2--2--2-|


   ~~~~~
                                 |------6-------|  |------6-------|
   W                             E  E  E  E  E  E  E  E  E  E  E  E
|-----------------------------|-16-17-16-17-17-14-17-14-17----17----|
|-----------------------------|----------------------------17----16-|
|-----------------------------|-------------------------------------|
|-12b14-----------------------|-------------------------------------|
|-----------------------------|-------------------------------------|
|-----------------------------|-------------------------------------|
|
|  PM----------------------------------------------------------------
|  |-----6------| |----6----|    |------6-------|  |------6-------|
|  E    E E E E E E E E E E E    E  E  E  E  E  E  E  E  E  E  E  E
|-----------------------------|-------------------------------------|
|-----------------------------|-------------------------------------|
|-----------------------------|-------------------------------------|
|-----------------------------|-------------------------------------|
|-----------------------------|--------------------1----------------|
|--3----3-3-3-3-3-6-6-6-6-6-6-|--2--2--2--2--2--2-----2--2--2--2--2-|


   |------6-------|  |------6-------|
   E  E  E  E  E  E  E  E  E  E  E  E
|-16-17-16-17-17-14-17-14-17----17-----|
|----------------------------17----16--|
|--------------------------------------|
|--------------------------------------|
|--------------------------------------|
|--------------------------------------|
|
|----------------------------------|
|  |------6-------|  |------6-------|
|  E  E  E  E  E  E  E  E  E  E  E  E
|--------------------------------------|
|--------------------------------------|
|--------------------------------------|
|--------------------------------------|
|--------------------------------------|
|--2--2--2--2--2--2--3--3--3--3--3--3--|


   |------6-------|  |------6-------|
   E  E  E  E  E  E  E  E  E  E  E  E
|-17-15-14----------------------------|
|----------15-14-14----12-14-12-------|
|-------------------15----------15-12-|
|-------------------------------------|
|-------------------------------------|
|-------------------------------------|
|
|  PM----------------------------------
|  |------6-------|  |------6-------|
|  E  E  E  E  E  E  E  E  E  E  E  E
|-------------------------------------|
|-------------------------------------|
|-------------------------------------|
|-------------------------------------|
|--------------------1----------------|
|--2--2--2--2--2--2-----2--2--2--2--2-|


                                                   E5 F#5
                                   |------6------|
   +W                              E  E  E  E  E E  E   Q.
|-------------------------------|-------------10-9-----------|
|-------------------------------|------------------10-[11]---|
|-(12)b14-----------------------|-------11h12----------------|
|-------------------------------|-12h14----------------------|
|-------------------------------|----------------------------|
|-------------------------------|----------------------------|
|
|------------------------------------------------|
|   |------6------| |----6----|    |------6------|
|   E     E E E E E E E E E E E    E  E  E  E  E E  E   Q.
|-------------------------------|----------------------------|
|-------------------------------|----------------------------|
|-------------------------------|----------------------------|
|-------------------------------|----------------------------|
|-------------------------------|-------------------2---4----|
|---3-----3-3-3-3-3-6-6-6-6-6-6-|--3--3--3--3--3-3--0---2----|


              Guitar Solo 2
  E5 F#5
 2/4          4/4
                PM----------------------------------
                |------6-------|  |------6-------|
   E   Q.       E  E  E  E  E  E  E  E  E  E  E  E
|-----------||-------------------------------------|
|-10-[11]---||-------------------------------------|
|-----------||-------------------------------------|
|-----------||-------------------------------------|
|-----------||--------------------2----------------|
|-----------||--3--3--3--3--3--3-----3--3--3--3--3-|
|
|               |------6-------|  |------6-------|
|  E   Q.       E  E  E  E  E  E  E  E  E  E  E  E
|-----------||-20-24-20----20-24-20----20-24-20----|
|-----------||----------22----------22----------22-|
|-----------||-------------------------------------|
|-----------||-------------------------------------|
|--2---4----||-------------------------------------|
|--0---2----||-------------------------------------|


 ---------------------------------------|
   |--------6--------|   |-------6-------|
   E  E  E  E  E     E   E   E  E  E  E  E
|-------------------------------------------|
|-------------------------------------------|
|-------------------------------------------|
|-------------------------------------------|
|-------------------------------------------|
|--3--3--3--3--3-----3---4---4--4--4--4--4--|
|
|  |-----6-----|         |-------6-------|
|  E  E  E  E  Q        +Q      E  E  E  E
|-20-24-20----20-------(20)----20-24-20-----|
|----------22-23b25====(23)r------------22--|
|-------------------------------------------|
|-------------------------------------------|
|-------------------------------------------|
|-------------------------------------------|


   PM----------------------------------
   |------6-------|  |------6-------|
   E  E  E  E  E  E  E  E  E  E  E  E
|-------------------------------------|
|-------------------------------------|
|-------------------------------------|
|-------------------------------------|
|--------------------2----------------|
|--3--3--3--3--3--3-----3--3--3--3--3-|
|
|  |------6-------|  |------6-------|
|  E  E  E  E  E  E  E  E  E  E  E  E
|-20-24-20----20-24-20----20-24-20----|
|----------22----------22----------22-|
|-------------------------------------|
|-------------------------------------|
|-------------------------------------|
|-------------------------------------|


 -----------------------------------------------------------------------------|
   |--------6--------|   |-------6-------|    |------6-------|  |------6-------|
   E  E  E  E  E     E   E   E  E    E E E    E  E  E  E  E  E  E  E  E  E  E  E
|------------------------------------------|--------------------------------------|
|------------------------------------------|--------------------------------------|
|------------------------------------------|--------------------------------------|
|------------------------------------------|--------------------------------------|
|------------------------------------------|--------------------2-----------------|
|--4--4--4--4--4-----4---7---7--7----7-7-7-|--3--3--3--3--3--3-----3--3--3--3--3--|
|
|  |-----6-----|         |--3---|             |------6-------|  |------6-------|
|  E  E  E  E  Q        +Q      H             E  E  E  E  E  E  E  E  E  E  E  E
|-20-24-20----20-------(20)----22----------|-20-24-20----20-24-20----20-24-20-----|
|----------22-23b25====(23)r---24b27-------|----------22----------22----------22--|
|------------------------------------------|--------------------------------------|
|------------------------------------------|--------------------------------------|
|------------------------------------------|--------------------------------------|
|------------------------------------------|--------------------------------------|


   PM-----------------------------------
   |--------6--------|   |-----6-----|
   E  E  E  E  E     E   E   E E E E E
|--------------------------------------|
|--------------------------------------|
|--------------------------------------|
|--------------------------------------|
|--------------------------------------|
|--3--3--3--3--3-----3---4---4-4-4-4-4-|
|
|                        \2
|                        ~~~~~
|  |-----6-----|
|  E  E  E  E  Q        +H
|-20-24-20----19-----------------------|
|----------22-20b22====(20)r-----------|
|--------------------------------------|
|--------------------------------------|
|--------------------------------------|
|--------------------------------------|


 -----------------------------------------------------------------------|
   |------6-------|  |------6------|    |------6-------|  |------6-------|
   E  E  E  E  E  E  E  E  E  E  E E    E  E  E  E  E  E  E  E  E  E  E  E
|------------------------------------|--------------------------------------|
|------------------------------------|--------------------------------------|
|------------------------------------|--------------------------------------|
|------------------------------------|--------------------------------------|
|--------------------2---------------|--------------------------------------|
|--3--3--3--3--3--3-----3--3--3--3-3-|--4--4--4--4--4--4--7--7--7--7--7--7--|
|
|                                       PM------------------|
|  |------6-------|  |--3--|            |------6-------|  |------6-------|
|  E  E  E  E  E  E  E  E  E  Q         E  E  E  E  E  E  E  E  E  E  E  E
|-18-16-15---------------------------|--------------------------------------|
|----------19-17-16------------------|--------------------------------------|
|-------------------18-16-15---------|--------------------------------------|
|----------------------------16\-----|-------------------------14-15-14-15--|
|------------------------------------|----------14-15-14-15-17--------------|
|------------------------------------|-14-15-17-----------------------------|


                    E5    F#5              E5    G5      E5F#5
   PM------------|
   |------6-------|
   E  E  E  E  E  E  E    Q.                E    Q.      E Q.
|----------------------------------------|----------------------|
|----------------------------------------|----------------------|
|----------------------------------------|----------------------|
|----------------------------------------|----------------------|
|--------------------2----4--------------|--2----5-------2-4----|
|--3--3--3--3--3--3--0----2--------------|--0----3-------0-2----|
|
|  |------6-------|  |--------6--------|    |---3----|
|  E  E  E  E  E  E  E  E     E  E  E  E    E  E     H   H
|-------------------------------------14-|-15-17----19\---------|
|-------------------14-15----14-15-17----|----------------------|
|----14-15-14-15-17----------------------|----------------------|
|-17-------------------------------------|----------------------|
|----------------------------------------|----------------------|
|----------------------------------------|----------------------|


 Interlude
  E5                     E5
  Gtr II
  W                      W
  Gtr I
    PM--------|   ~~       PM--------|    ~~
  E S S S S S S E Q.     E S S S S S S  E Q.
|----------------------|-----------------------|
|----------------------|-----------------------|
|----------------------|-----------------------|
|----------------------|-----------------------|
|-2-------------8-7----|-2-------------10-8----|
|-0-0-0-0-0-0-0--------|-0-0-0-0-0-0-0---------|


  E5                              E5F5
  W                       H       E Q.
                                  | |
                                  / /

    PM--------|   ~~~~~~~~~~~~~
  E S S S S S S E Q.     +H       E Q.
|----------------------|-----------------|
|----------------------|-----------------|
|----------------------|-----------------|
|----------------------|-----------------|
|-2-------------8-7----|-(7)b8----2-3----|
|-0-0-0-0-0-0-0--------|----------0-1----|


   Verse
    Q=100
                                                              G#5
    Gtrs I, II
    PM--------------------|           PM--------------------|
    S S S S S S S S S S S S S S S S   S S S S S S S S S S S S Q    3x
||----------------------------------|------------------------------||
||o---------------------------------|-----------------------------o||
||----------------------------------|------------------------------||
||--------------------------6-5-4---|-------------------------6----||
||o-------------------------------5-|-------------------------6---o||
||--0-0-0-0-0-0-0-0-0-0-0-0---------|-0-0-0-0-0-0-0-0-0-0-0-0-4----||


                                                            E5F5
  PM--------------------|           PM--------------------|
  S S S S S S S S S S S S S S S S   S S S S S S S S S S S S S E.
|---------------------------------|------------------------------|
|---------------------------------|------------------------------|
|---------------------------------|------------------------------|
|-------------------------6-5-4---|------------------------------|
|-------------------------------5-|-------------------------2-3--|
|-0-0-0-0-0-0-0-0-0-0-0-0---------|-0-0-0-0-0-0-0-0-0-0-0-0-0-1--|


                          G5   B5 Bb5
                              2/4
  PM--------------------|
  S S S S S S S S S S S S Q    Q  Q
|----------------------------|-------|
|----------------------------|-------|
|----------------------------|-4--3--|
|-------------------------5--|-4--3--|
|-------------------------5--|-2--1--|
|-3-2-0-2-3-2-0-2-3-2-0-2-3--|-------|


                                                              G#5
   4/4
    PM--------------------|           PM--------------------|
    S S S S S S S S S S S S S S S S   S S S S S S S S S S S S Q   3x
||----------------------------------|-----------------------------||
||o---------------------------------|----------------------------o||
||----------------------------------|-----------------------------||
||--------------------------6-5-4---|-------------------------6---||
||o-------------------------------5-|-------------------------6--o||
||--0-0-0-0-0-0-0-0-0-0-0-0---------|-0-0-0-0-0-0-0-0-0-0-0-0-4---||


                                                            E5F5
  PM--------------------|           PM--------------------|
  S S S S S S S S S S S S S S S S   S S S S S S S S S S S S S E.
|---------------------------------|------------------------------|
|---------------------------------|------------------------------|
|---------------------------------|------------------------------|
|-------------------------6-5-4---|------------------------------|
|-------------------------------5-|-------------------------2-3--|
|-0-0-0-0-0-0-0-0-0-0-0-0---------|-0-0-0-0-0-0-0-0-0-0-0-0-0-1--|


 Out-Chorus
  Q=200
  PM----------------------|       PM--------------------------|       PM
  E E E E E E E E   E E E E E E E E   E E E E E E E E   E E E E E E E E
|-----------------|-----------------|-----------------|-----------------|
|-----------------|-----------------|-----------------|-----------------|
|-----------------|-----------------|-----------------|-----------------|
|-----------------|-----------------|-----------------|-----------------|
|-----------------|---------2-1-0---|-----------------|---------3-2-1---|
|-3-2-0-2-3-2-0-2-|-3-2-0-2-------2-|-3-2-0-2-3-2-0-2-|-3-2-0-2-------2-|


  F#5         G5            E5(type 2)  F#5
  Gtr II
  H           H             H           H
  |           |             |           |
  /           /             /           /

  Gtr I
  |----6----| |----6----|   |----6----| |----6----|
  E E E E E E E E E E E E   E E E E E E E E E E E E
|-------------------------|-------------------------|
|-------------------------|-------------------------|
|-------------------------|-------------------------|
|-------------------------|-------------------------|
|-------------------------|-------------------------|
|-2-2-2-2-2-2-3-3-3-3-3-3-|-0-0-0-0-0-0-2-2-2-2-2-2-|


  G5          B5            Bb5         F5(type 2)
  H           H             H           H
  |           |             |           |
  /           /             /           /

  |----6----| |----6----|   |----6----| |----6----|
  E E E E E E E E E E E E   E E E E E E E E E E E E
|-------------------------|----------------------------|
|-------------------------|----------------------------|
|-------------------------|----------------------------|
|-------------------------|----------------------------|
|-------------------------|----------------------------|
|-3-3-3-3-3-3-7-7-7-7-7-7-|-6-6-6-6-6-6-1-1-1-1-1-1----|


   Outro
    E5            A5G5/E5  F5
    W                      W
                           |
                           /

      PM--------|
    E S S S S S S E Q  E   W     3x
||-----------------------|-------||
||o----------------------|------o||
||-----------------------|-------||
||----------------7-5----|-------||
||o-2-------------7-5--2-|-3----o||
||--0-0-0-0-0-0-0------0-|-1-----||


  E5     F5E5/B        G5/F5/C
  Gtrs I, II
  E Q.   E Q.     H     E Q.
|---------------|--------------|
|---------------|--------------|
|---------------|--------------|
|---------------|--------------|
|-2------8-7----|------10-8----|
|-0------8-7----|------10-8----|


       F5E5/B   D5E5/B
  H    E Q.     E Q.   H
|-------------|-------------*|
|-------------|-------------*|
|-------------|-------------*|
|-------------|-------------*|
|------8-7----|-5-7---------*|
|------8-7----|-5-7---------*|



Duration Legend
---------------
W - whole; H - half; Q - quarter; E - 8th; S - 16th; T - 32nd; X - 64th; a - acciaccatura
+ - note tied to previous; . - note dotted; .. - note double dotted
Uncapitalized letters represent notes that are staccato (1/2 duration)
Irregular groupings are notated above the duration line
Duration letters will always appear directly above the note/fret number it represents the
duration for.  Duration letters with no fret number below them represent rests.  Multi-
bar rests are notated in the form Wxn, where n is the number of bars to rest for.  Low
melody durations appear below the staff

Tablature Legend
----------------
 h   - hammer-on
 p   - pull-off
 b   - bend
 pb  - pre-bend
 r   - bend release (if no number after the r, then release immediately)
 /\  - slide into or out of (from/to "nowhere")
 s   - legato slide
 S   - shift slide
 - natural harmonic
[n]  - artificial harmonic
n(n) - tapped harmonic
 ~   - vibrato
 tr  - trill
 T   - tap
 TP  - trem. picking
 PM  - palm muting
\n/  - tremolo bar dip; n = amount to dip
 \n  - tremolo bar down
 n/  - tremolo bar up
/n\  - tremolo bar inverted dip
 =   - hold bend; also acts as connecting device for hammers/pulls
 <> - volume swell (louder/softer)
 x   - on rhythm slash represents muted slash
 o   - on rhythm slash represents single note slash

Misc Legend
-----------
 |  - bar
||  - double bar
||o - repeat start
o|| - repeat end
*|  - double bar (ending)
 :  - bar (freetime)
 $  - Segno
 &  - Coda
Tempo markers -  = BPM(8/16=s8/s16), where s8 = swing 8ths, s16 = swing 16ths

Tap to rate this tab
# A B C D E F G H I J K L M N O P Q R S T U V W X Y Z