Song name
# A B C D E F G H I J K L M N O P Q R S T U V W X Y Z

Slayer - In The Name Of God tab

in the name of god (solo)
album: diabolus in musica
slayer

tabbed by Rudy Guzman

solo 1
:2-5-2--5-2-525252-52-5-2-5-2-5-2-5-2-5-2-5-2-5-2-5-2-5|
:------------------------------------------------------|
:------------------------------------------------------|
:------------------------------------------------------|
:------------------------------------------------------|
:------------------------------------------------------|



:2-5-2-5-2-/7~~~~-7-8---------------------7-8--11-12-11~~~-|
:---------------------10-8------------7-8------------------|
:--------------------------9-8~~~-8-9----------------------|
:----------------------------------------------------------|
:----------------------------------------------------------|
:----------------------------------------------------------|



:-/14-17-14-17-14-17-14-17-14-17-14-17-14-17-14-18b-18b-18b-18b~~~\-|
:-------------------------------------------------------------------|
:-------------------------------------------------------------------|
:-------------------------------------------------------------------|
:-------------------------------------------------------------------|
:-------------------------------------------------------------------|



solo 2        bar    bar  bar bar/\/\/\  bar /\/\/\/\ /\/\/\
:----------*------------------5ah~-------------------------------|
:----------*--------------5ah------------------------------------|
:1/2-22-2~~*-(2~~~)----------------------0---(0)---(0)---(0)-----|
:----------*-----------------------------------------------------|
:-2-times--*---------0-------------------------------------------|
:----------*-----------------------------------------------------|

  bar/\/\/\/\/\
:--------------------21b--16b-|
:-------------------------13b-|
:-0---------------0-----------|
:-----------------------------|
:-----------------------------|
:-----------------------------|


:23b-16b-24b-16b-23b--19b-|
:----13b-----13b------16b-|
:-------------------------|
:-------------------------|
:-------------------------|
:-------------------------|


:-16b-16b-16b-|15b--15b--17-20-17-20-|
:-19b-19b-19b-|18b--18b--------------|
:-------------|----------------------|
:-------------|----------------------|
:-------------|--play 3 times--------|
:-------------|----------------------|



:-15b-15b--18b-18b-18b\--|
:-18b-18b--21b-21b-21b\--|
:------------------------|
:------------------------|
:------------------------|
:------------------------|
Tap to rate this tab
# A B C D E F G H I J K L M N O P Q R S T U V W X Y Z