Song name
# A B C D E F G H I J K L M N O P Q R S T U V W X Y Z

Slayer - Memories Of Tomorrow tab

#----------------------------------PLEASE NOTE---------------------------------#
#This file is the author's own work and represents their interpretation of the #
#song. You may only use this file for private study, scholarship, or research. #
#------------------------------------------------------------------------------#

MEMORIES OF TOMORROW
As recorded by Slayer
(From the 1996 Album UNDISPUTED ATTITUDE)

Transcribed by Anti-Idiot
	

Words and Music by Suicidal Tendencies

Gtr I (Eb Ab Db Gb Bb Eb) - 'Jeff Hanneman'
Gtr II (Eb Ab Db Gb Bb Eb) - 'Kerry King'

 Intro
  Q=250
         B5C5          B5C5          B5C5          B5C5
 2/4    4/4
  Gtrs I, II
  W      E E Q  H      E E Q  H      E E Q  H      E E Q  H
|------|-------------|-------------|-------------|--------------|
|------|-------------|-------------|-------------|--------------|
|------|-------------|-------------|-------------|--------------|
|------|-4s5---------|-4s5---------|-4s5---------|-4s5----------|
|------|-2s3---------|-2s3---------|-2s3---------|-2s3----------|
|------|-------------|-------------|-------------|--------8\----|


   Verse 1                    Chorus
    B5C5  G5  A5Bb5            C5
   2/4
    PM--|                      PM
    E E E E   E E +Q    4x     E E E +E
||----------|-----------||-||------------|
||o---------|----------o||-||o-----------|
||----------|-----------||-||------------|
||--4-5-5---|-----------||-||--5-5-5-(5)-|
||o-2-3-3-5-|-7-8-(8)--o||-||o-3-3-3-(3)-|
||--------3-|-5-6-(6)---||-||------------|


  D5          Eb5         F5
  PM          PM           PM
  E E E +E    E E E +E     E  E  E  +E
|-----------|-----------|-----------------||
|-----------|-----------|----------------o||
|-----------|-----------|-----------------||
|-7-7-7-(7)-|-8-8-8-(8)-|-10-10-10-(10)---||
|-5-5-5-(5)-|-6-6-6-(6)-|--8--8--8--(8)--o||
|-----------|-----------|-----------------||


   Verse 2                Interlude
    B5C5  G5  A5Bb5        C5
    PM--|
    E E E E   E E +Q    4x  h      Wx2      H
||----------|-----------||-------|--------|-------|
||o---------|----------o||-------|--------|-------|
||----------|-----------||-------|--------|-------|
||--4-5-5---|-----------||-------|--------|-------|
||o-2-3-3-5-|-7-8-(8)--o||-10----|--------|-x\----|
||--------3-|-5-6-(6)---||--8----|--------|-x\----|


   Verse 3                    Chorus
    B5C5  G5  A5Bb5            C5
    PM--|                      PM
    E E E E   E E +Q    4x     E E E +E
||----------|-----------||-||------------|
||o---------|----------o||-||o-----------|
||----------|-----------||-||------------|
||--4-5-5---|-----------||-||--5-5-5-(5)-|
||o-2-3-3-5-|-7-8-(8)--o||-||o-3-3-3-(3)-|
||--------3-|-5-6-(6)---||-||------------|


  D5          Eb5         F5
  PM          PM           PM
  E E E +E    E E E +E     E  E  E  +E
|-----------|-----------|----------------||
|-----------|-----------|---------------o||
|-----------|-----------|----------------||
|-7-7-7-(7)-|-8-8-8-(8)-|-10-10-10-(10)--||
|-5-5-5-(5)-|-6-6-6-(6)-|--8--8--8--(8)-o||
|-----------|-----------|----------------||


   Verse 4                Interlude 2
    B5C5  G5  A5Bb5        C5
    PM--|
    E E E E   E E +Q    4x  h      Wx3
||----------|-----------||-------|--------|
||o---------|----------o||-------|--------|
||----------|-----------||-------|--------|
||--4-5-5---|-----------||-------|--------|
||o-2-3-3-5-|-7-8-(8)--o||-10----|--------|
||--------3-|-5-6-(6)---||--8----|--------|


   Scream                     Chorus
    B5C5  G5  A5Bb5            C5
    PM--|                      PM
    E E E E   E E +Q    4x     E E E +E
||----------|-----------||-||------------|
||o---------|----------o||-||o-----------|
||----------|-----------||-||------------|
||--4-5-5---|-----------||-||--5-5-5-(5)-|
||o-2-3-3-5-|-7-8-(8)--o||-||o-3-3-3-(3)-|
||--------3-|-5-6-(6)---||-||------------|


  D5          Eb5         F5
  PM          PM           PM
  E E E +E    E E E +E     E  E  E  +E
|-----------|-----------|----------------||
|-----------|-----------|---------------o||
|-----------|-----------|----------------||
|-7-7-7-(7)-|-8-8-8-(8)-|-10-10-10-(10)--||
|-5-5-5-(5)-|-6-6-6-(6)-|--8--8--8--(8)-o||
|-----------|-----------|----------------||


   Verse 5                Interlude
    B5C5  G5  A5Bb5        C5
    PM--|
    E E E E   E E +Q    4x  h      Wx3
||----------|-----------||-------|--------|
||o---------|----------o||-------|--------|
||----------|-----------||-------|--------|
||--4-5-5---|-----------||-------|--------|
||o-2-3-3-5-|-7-8-(8)--o||-10----|--------|
||--------3-|-5-6-(6)---||--8----|--------|


 Outro
  B5C5          B5C5          B5C5          C5
 4/4
  E E Q  H      E E Q  H      E E Q  H      Q  Q  H
|-------------|-------------|-------------|------------*|
|-------------|-------------|-------------|------------*|
|-------------|-------------|-------------|------------*|
|-4s5---------|-4s5---------|-4s5---------|-5----------*|
|-2s3---------|-2s3---------|-2s3---------|-3----------*|
|-------------|-------------|-------------|------------*|



Duration Legend
---------------
W - whole; H - half; Q - quarter; E - 8th; S - 16th; T - 32nd; X - 64th; a - acciaccatura
+ - note tied to previous; . - note dotted; .. - note double dotted
Uncapitalized letters represent notes that are staccato (1/2 duration)
Irregular groupings are notated above the duration line
Duration letters will always appear directly above the note/fret number it represents the
duration for.  Duration letters with no fret number below them represent rests.  Multi-
bar rests are notated in the form Wxn, where n is the number of bars to rest for.  Low
melody durations appear below the staff

Tablature Legend
----------------
 h   - hammer-on
 p   - pull-off
 b   - bend
 pb  - pre-bend
 r   - bend release (if no number after the r, then release immediately)
 /\  - slide into or out of (from/to "nowhere")
 s   - legato slide
 S   - shift slide
 - natural harmonic
[n]  - artificial harmonic
n(n) - tapped harmonic
 ~   - vibrato
 tr  - trill
 T   - tap
 TP  - trem. picking
 PM  - palm muting
\n/  - tremolo bar dip; n = amount to dip
 \n  - tremolo bar down
 n/  - tremolo bar up
/n\  - tremolo bar inverted dip
 =   - hold bend; also acts as connecting device for hammers/pulls
 <> - volume swell (louder/softer)
 x   - on rhythm slash represents muted slash
 o   - on rhythm slash represents single note slash

Misc Legend
-----------
 |  - bar
||  - double bar
||o - repeat start
o|| - repeat end
*|  - double bar (ending)
 :  - bar (freetime)
 $  - Segno
 &  - Coda
Tempo markers -  = BPM(8/16=s8/s16), where s8 = swing 8ths, s16 = swing 16ths

Tap to rate this tab
 
# A B C D E F G H I J K L M N O P Q R S T U V W X Y Z