Song name
# A B C D E F G H I J K L M N O P Q R S T U V W X Y Z

Slayer - Perversions Of Pain tab

Pervesions of pain (SOLO)
slayer
album: diabolus in musica

tabbed by Ruddy Guzman


   solo
eb:----------------------------------------15-16-18-16-15------------------------------|
Bb:-----15--18b--18b~~~-----------15-16-18-----------------18-15-18b---18b~~~----------|
Gb:-/17------------------15-16-18------------------------------------------------------|
Db:------------------------------------------------------------------------------------|
Ab:------------------------------------------------------------------------------------|
Eb:------------------------------------------------------------------------------------|



eb:-----------------------------------------------------------------|
Bb:-15-18-15--------------------------------------------------------|
Gb:----------18-17-15-----------------------------------------------|
Db:-------------------18-17-15--------------------------------------|
Ab:-------------------------------15-15-15-14~~~--------------------|
Eb:------------------------------------------------17-17-17-16~~~---|

eb:------------------------------------------------------|
Bb:------------------------------------------------------|
Gb:-----------------13-16-15-13--------------------------|
Db:-----------------------------16-15-13-----------------|
Ab:-15-15-15-14~~~-----------------------16-15-13--------|
Eb:------------------------------------------------16-13-|


eb:---------------------------------------------------|
Bb:---------------------------------------------------|
Gb:---------------------------------------------------|
Db:---------------------------------------------------|
Ab:-15-15-15-14~~~------------------15-15-15-14~~~----|
Eb:-----------------17-17-17-16~~~--------------------|


eb:------------------------------16-16-15----19-19-18---21b---21b~~~--|
Bb:---------------------15-15-14--------------------------------------|
Gb:-----------14-14-13------------------------------------------------|
Db:-15-15-14----------------------------------------------------------|
Ab:-------------------------------------------------------------------|
Eb:-------------------------------------------------------------------|
Tap to rate this tab
 
# A B C D E F G H I J K L M N O P Q R S T U V W X Y Z