Song name
# A B C D E F G H I J K L M N O P Q R S T U V W X Y Z

Slayer - Silent Scream tab

#----------------------------------PLEASE NOTE---------------------------------#
#This file is the author's own work and represents their interpretation of the #
#song. You may only use this file for private study, scholarship, or research. #
#------------------------------------------------------------------------------#

SILENT SCREAM
As recorded by Slayer
(From the 1988 Album SOUTH OF HEAVEN)

Transcribed by Fenian
	

Words by Tom Araya Music by Jeff Hanneman & Kerry King

Gtr I (Eb Ab Db Gb Bb Eb) - 'Untitled'
Gtr II (Eb Ab Db Gb Bb Eb) - 'Untitled'
Gtr III (Eb Ab Db Gb Bb Eb) - 'Untitled'
Gtr IV (Eb Ab Db Gb Bb Eb) - 'Untitled'

   Intro
    Q=196
   4/4
    Gtrs I, II
           PM----------------------------------------------|
    E E Q  S S S S S S S S   S S S S S S S S S S S S S S S S  4x
||-------------------------|----------------------------------||
||o------------------------|---------------------------------o||
||-------------------------|----------------------------------||
||--9-8--------------------|----------------------------------||
||o-7-7--------------------|---------------------------------o||
||---------0-0-0-0-0-0-0-0-|-0-0-0-0-0-0-0-0-0-0-0-0-0-0-0-0--||


        PM--|      PM--|       PM--|      PM--|
    E E S S E E  E S S E   E E S S E E  E S S E
||-----------------------|----------------------|
||o----------------------|----------------------|
||-----------------------|----------------------|
||--9-8-------9----------|-8-----------10-------|
||o-7-7---------10-------|---9-------8----------|
||------0-0-0------0-0-0-|-----0-0-0------0-0-0-|


      PM--|      PM--|       PM--|      PM--|
  E E S S E E  E S S E   E E S S E E  E S S E
|----------------------|----------------------|
|----------------------|----------------------|
|----------------------|----------------------|
|-9-8-------9----------|-8--------------------|
|-7-7---------10-------|---9-------8-10-------|
|-----0-0-0------0-0-0-|-----0-0-0------0-0-0-|


      PM--|      PM--|       PM--|      PM--|
  E E S S E E  E S S E   E E S S E E  E S S E
|----------------------|----------------------|
|----------------------|----------------------|
|----------------------|----------------------|
|-9-8-------9----------|-8-----------10-------|
|-7-7---------10-------|---9-------8----------|
|-----0-0-0------0-0-0-|-----0-0-0------0-0-0-|


      PM--|      PM--|       PM--|     PM--|
  E E S S E E  E S S E   E E S S E E E S S E
|----------------------|-----------------------||
|----------------------|----------------------o||
|----------------------|-----------------------||
|-9-8-------9----------|-8---------7-----------||
|-7-7---------10-------|---9---------8--------o||
|-----0-0-0------0-0-0-|-----0-0-0-----0-0-0---||


   Verse 1 & 2
        PM--|      PM--|       PM--|      PM--|
    E E S S E E  E S S E   E E S S E E  E S S E
||-----------------------|----------------------|
||o----------------------|----------------------|
||-----------------------|----------------------|
||--9-8-------9----------|-8-----------10-------|
||o-7-7---------10-------|---9-------8----------|
||------0-0-0------0-0-0-|-----0-0-0------0-0-0-|


      PM--|      PM--|       PM--|      PM--|
  E E S S E E  E S S E   E E S S E E  E S S E
|----------------------|----------------------|
|----------------------|----------------------|
|----------------------|----------------------|
|-9-8-------9----------|-8--------------------|
|-7-7---------10-------|---9-------8-10-------|
|-----0-0-0------0-0-0-|-----0-0-0------0-0-0-|


      PM--|      PM--|       PM--|      PM--|
  E E S S E E  E S S E   E E S S E E  E S S E
|----------------------|----------------------|
|----------------------|----------------------|
|----------------------|----------------------|
|-9-8-------9----------|-8-----------10-------|
|-7-7---------10-------|---9-------8----------|
|-----0-0-0------0-0-0-|-----0-0-0------0-0-0-|


      PM--|      PM--|       PM--|     PM--|
  E E S S E E  E S S E   E E S S E E E S S E
|----------------------|----------------------|
|----------------------|----------------------|
|----------------------|----------------------|
|-9-8-------9----------|-8---------7----------|
|-7-7---------10-------|---9---------8--------|
|-----0-0-0------0-0-0-|-----0-0-0-----0-0-0--|


      PM--|      PM--|       PM--|      PM--|
  E E S S E E  E S S E   E E S S E E  E S S E
|----------------------|----------------------|
|----------------------|----------------------|
|----------------------|----------------------|
|-9-8-------9----------|-8-----------10-------|
|-7-7---------10-------|---9-------8----------|
|-----0-0-0------0-0-0-|-----0-0-0------0-0-0-|


      PM--|      PM--|       PM--|      PM--|
  E E S S E E  E S S E   E E S S E E  E S S E
|----------------------|-----------------------|
|----------------------|-----------------------|
|----------------------|-----------------------|
|-9-8-------9----------|-8---------------------|
|-7-7---------10-------|---9-------8-10--------|
|-----0-0-0------0-0-0-|-----0-0-0------0-0-0--|


      PM--|      PM--|       PM--|      PM--|
  E E S S E E  E S S E   E E S S E E  E S S E
|----------------------|----------------------|
|----------------------|----------------------|
|----------------------|----------------------|
|-9-8-------9----------|-8-----------10-------|
|-7-7---------10-------|---9-------8----------|
|-----0-0-0------0-0-0-|-----0-0-0------0-0-0-|


      PM--|      PM--|       PM--|     PM--|
  E E S S E E  E S S E   E E S S E E E S S E
|----------------------|----------------------||
|----------------------|----------------------||
|----------------------|----------------------||
|-9-8-------9----------|-8---------7----------||
|-7-7---------10-------|---9---------8--------||
|-----0-0-0------0-0-0-|-----0-0-0-----0-0-0--||


 Chorus
  Gtr I
                                               PM--|     PM--|
   W                      W                  E S S E E E S S E E
|----------------------|-------------------|---------------------|
|----------------------|-------------------|---------------------|
|----------------------|-------------------|---------------------|
|-16-------------------|-15----------------|-9-------------------|
|-14-------------------|-13----------------|-7-------5-7-------5-|
|----------------------|-------------------|---0-0-0-----0-0-0---|
|
| Gtr II
|    PM--|     PM--|        PM--|     PM       PM--|     PM--|
|  E S S E E E S S E E    E S S E E E E Q    E S S E E E S S E E
|----------------------|-------------------|---------------------|
|----------------------|-------------------|---------------------|
|----------------------|-------------------|---------------------|
|--9-------------------|-------------------|---------------------|
|--7-------5-7-------5-|--7-------5-7---3--|-2-------0-2-------0-|
|----0-0-0-----0-0-0---|----0-0-0-----0-1--|-0-0-0-0-----0-0-0---|


    PM--|     PM
  E S S E E E E  Q     W                      W
|-------------------|----------------------|-------------------|
|-------------------|----------------------|-------------------|
|-------------------|----------------------|-------------------|
|---------------10--|-16-------------------|-15----------------|
|-7-------5-7----8--|-14-------------------|-13----------------|
|---0-0-0-----0-----|----------------------|-------------------|
|
|   PM--|     PM         PM--|     PM--|        PM--|     PM
| E S S E E E E  Q     E S S E E E S S E E    E S S E E E E Q
|-------------------|----------------------|-------------------|
|-------------------|----------------------|-------------------|
|-------------------|----------------------|-------------------|
|-------------------|----------------------|-------------------|
|-2-------0-2----3--|--2-------5-7-------5-|--7-------5-7---3--|
|---0-0-0-----0--1--|--0-0-0-0-----0-0-0---|----0-0-0-----0-1--|


    PM--|     PM--|       PM--|     PM
  E S S E E E S S E E   E S S E E E E  Q
|---------------------|-------------------|
|---------------------|-------------------|
|---------------------|-------------------|
|-9-------------------|---------------10--|
|-7-------5-7-------5-|-7-------5-7----8--|
|---0-0-0-----0-0-0---|---0-0-0-----0-----|
|
|   PM--|     PM--|       PM--|     PM
| E S S E E E S S E E   E S S E E E E  Q
|---------------------|-------------------|
|---------------------|-------------------|
|---------------------|-------------------|
|---------------------|-------------------|
|-2-------0-2-------0-|-2-------0-2----3--|
|-0-0-0-0-----0-0-0---|---0-0-0-----0--1--|


 1.
    PM--|     PM--|       PM--|     PM
  E S S E E E S S E E   E S S E E E E  Q
|---------------------|--------------------||
|---------------------|-------------------o||
|---------------------|--------------------||
|-9-------------------|---------------10---||
|-7-------5-7-------5-|-7-------5-7----8--o||
|---0-0-0-----0-0-0---|---0-0-0-----0------||
|
| E E   E E E E   E E   E E   E E E E  Q
|---------------------|--------------------||
|---------------------|-------------------o||
|---------------------|--------------------||
|---------7-9-------7-|-9-------7-9---10---||
|-2-------5-7-------5-|-7-------5-7----8--o||
|-0-------------------|--------------------||


  2.
  Gtr I
  E E E E E E E E   E E E E E E  Q
|-----------------|-----------------||
|-----------------|-----------------||
|-----------------|-----------------||
|-------7-9-----7-|-9-----7-9---10--||
|-2-----5-7-----5-|-7-----5-7----8--||
|-0---------------|-----------------||
|
| Gtr II
| E E E E E E E E   E E E E E E  Q
|-----------------|-----------------||
|-----------------|-----------------||
|-----------------|-----------------||
|-------7-9-----7-|-9-----7-9---10--||
|-2-----5-7-----5-|-7-----5-7----8--||
|-0---------------|-----------------||


 Guitar Solo
   S  S  S  S  S  S  S  S  S  S  S  S  S  S  S  S
|-20-15-15----15-------20-20-15----15-15-------20-|
|----------17----17-17----------17-------17-17----|
|-------------------------------------------------|
|-------------------------------------------------|
|-------------------------------------------------|
|-------------------------------------------------|
|
|        PM---|                  PM---|
|  E     S  S  E     E     E     S  S  E     E
|-------------------------------------------------|
|-------------------------------------------------|
|-------------------------------------------------|
|--9----------------------------------------------|
|--7-----------------5-----7-----------------5----|
|--------0--0--0-----------------0--0--0----------|


   S  S  S  S  S  S  S  S  S  S  S  S  S  S  S  S
|-20-15----15-15-------20-20-15----15-15-------21-|
|-------17-------17-17----------17-------17-17----|
|-------------------------------------------------|
|-------------------------------------------------|
|-------------------------------------------------|
|-------------------------------------------------|
|
|        PM---|                  PM
|  E     S  S  E     E     E     E     Q
|-------------------------------------------------|
|-------------------------------------------------|
|-------------------------------------------------|
|-------------------------------------10----------|
|--7-----------------5-----7-----------8----------|
|--------0--0--0-----------------0----------------|


   S  S  S  S  S  S  S  S  S  S  S  S  S  S  S  S
|-21-17-17-20-19-17-19-17-------------------------|
|-------------------------20-20-19-17-17----------|
|----------------------------------------20-19-19-|
|-------------------------------------------------|
|-------------------------------------------------|
|-------------------------------------------------|
|
|        PM---|                  PM---|
|  E     S  S  E     E     E     S  S  E     E
|-------------------------------------------------|
|-------------------------------------------------|
|-------------------------------------------------|
|-------------------------------------------------|
|--2-----------------5-----7-----------------5----|
|--0-----0--0--0-----------------0--0--0----------|


   S  S  S  S  S  S  E  +H
|----------------------------------|
|----------------------------------|
|-17-16-17-17-16-16----------------|
|-------------------17-(17)\-------|
|----------------------------------|
|----------------------------------|
|
|        PM---|              PM
|  E     S  S  E     E   E   E Q
|----------------------------------|
|----------------------------------|
|----------------------------------|
|----------------------------------|
|--7-----------------5---7-----3---|
|--------0--0--0-------------0-1---|


   E E   S S E S S S S E E   a E S  S  +S  S  S  S  Q.         E
|--------------------------|-------------------------------------|
|--------------------------|-----8-10-(10)-8-10-10-10b12\--------|
|----------------------5-7-|-7s9------------------------------13-|
|------------5-7-5-7-7-----|-------------------------------------|
|-/7-5---7-7---------------|-------------------------------------|
|--------------------------|-------------------------------------|
|
|    PM--|         PM--|         PM---|                   PM
|  E S S E   E E   S S E E     E S  S   E     E     E     E Q
|--------------------------|-------------------------------------|
|--------------------------|-------------------------------------|
|--------------------------|-------------------------------------|
|--------------------------|-------------------------------------|
|--2---------5-7---------5-|---7--------------5-----7-------3----|
|--0-0-0-0---------0-0-0---|-----0--0---0-----------------0-1----|


                                                      ~~~~
   S  S  S  S  E  E  S  S  E   E  S  S    Q          +Q     Q.        E
|-------------------12-12-15-----15-17-|-17b19======(17)---17r\---------|
|-------------13-15--------------------|----------------------------/12-|
|-12-12-12-12--------------------------|--------------------------------|
|--------------------------------------|--------------------------------|
|--------------------------------------|--------------------------------|
|--------------------------------------|--------------------------------|
|
|        PM---|            PM--|                PM--|           PM
|  E     S  S  E  E  E     S S E  E       E     S S   E  E  E   E Q
|--------------------------------------|--------------------------------|
|--------------------------------------|--------------------------------|
|--------------------------------------|--------------------------------|
|--------------------------------------|--------------------------------|
|--2--------------5--7------------5----|--7--------------5--7-----3-----|
|--0-----0--0--0-----------0-0-0-------|--------0-0---0---------0-1-----|


            \3                      /
                                               ~~~~~~~~
   S  S  S  S  S  S  S  S  S  S  S  S  S  S  S S   +H           Q.      E
|----11h14p11h14p11h14p11h14p11h14p11h14p11h14---|------------------------|
|-12---------------------------------------------|------------------------|
|----------------------------------------------9-|-(9)---------[9]\-----4-|
|------------------------------------------------|------------------------|
|------------------------------------------------|------------------------|
|------------------------------------------------|------------------------|
|
|        PM---|                  PM---|                PM--|        PM
|  E     S  S  E     E     E     S  S  E     E      E  S S E E  E   E Q
|------------------------------------------------|------------------------|
|------------------------------------------------|------------------------|
|------------------------------------------------|------------------------|
|------------------------------------------------|------------------------|
|--2-----------------5-----7-----------------5---|--7--------5--7-----3---|
|--0-----0--0--0-----------------0--0--0---------|-----0-0-0--------0-1---|


                              ~
  S S S S E E E E   S S S S   H          Q    Q
|---------------------------|---------------------||
|---------------------------|---------------------||
|-4-4-5-4-7-5---------------|-----------------6/--||
|-------------7-5---4-5-4-4-|---------------------||
|---------------------------|-7-------------------||
|---------------------------|-----------12\-------||
|
|     PM--|     PM--|           PM--|       PM
| E   S S E E E S S E   E     E S S E E  E  E Q
|---------------------------|---------------------||
|---------------------------|---------------------||
|---------------------------|---------------------||
|---------------------------|---------------------||
|-2---------5-7---------5---|-7-------5--7----3---||
|-0---0-0-0-----0-0-0-------|---0-0-0-------0-1---||


  Gtr IV
    S  S  S  S  S  S  S  S  S  S  S  S  S  S  S  S
|--------------------------------------------------|
|--------------------------------------------------|
|-/13-13-13-13-13-13-13-13-13-13-13-13-13-13-13-13-|
|--------------------------------------------------|
|--------------------------------------------------|
|--------------------------------------------------|
|
|   PM---------------|                  PM---|
|   S  S  S  S  S  S  E     E     E     S  S  E
|--------------------------------------------------|
|--------------------------------------------------|
|--------------------------------------------------|
|---------------------------6----------------------|
|---------------------------------7----------------|
|---4--4--4--4--4--4--4-----------------4--4--4----|


   ~~~~~~~~~~~~~~~
   H          +E   +E     E    E
|-----------------------------------|
|-----------------------------12----|
|-13---------(13)-(13)\-/13---------|
|-----------------------------------|
|-----------------------------------|
|-----------------------------------|
|
|      PM--|              PM-----|
|  E E S S E   E    E     S S  S S
|-----------------------------------|
|-----------------------------------|
|-----------------------------------|
|--5----------------7---------------|
|----6---------5--------------------|
|------4-4-4--------------4-4--4-4--|


   S  S  S  T  T  E    S  S  S  S  S  S  +E     S  S
|---------------------12-13-12-13-12-12-(12)---------|
|-12-13-15-12-13-15----------------------------15-13-|
|----------------------------------------------------|
|----------------------------------------------------|
|----------------------------------------------------|
|----------------------------------------------------|
|
|  PM-----------------|                   PM---|
|  S  S  S  S     S S  E     E     E      S  S  E
|----------------------------------------------------|
|----------------------------------------------------|
|----------------------------------------------------|
|----------------------------6-----------------------|
|----------------------------------7-----------------|
|--4--4--4--4-----4-4--4------------------4--4--4----|


                     ~~~~~~~
   E  S  S  S  S  S  S  +E   +Q         E
|-------------------------------------------|
|-12-15-13-12-13-12-------------------------|
|-------------------13-(13)-(13)\-----/12---|
|-------------------------------------------|
|-------------------------------------------|
|-------------------------------------------|
|
|           PM---|                PM------|
|  E  E     S  S  E      E    E   S S   S S
|-------------------------------------------|
|-------------------------------------------|
|-------------------------------------------|
|--5----------------------------------------|
|-----6------------------5----7-------------|
|-----------4--4--4---------------4-4---4-4-|


   S  S  S  S  S  S  S.  T  +S   E    S  S  S  S.  T
|----------12-13-15------------------13-14-16--------|
|-12-13-15----------13--14-(14)-16------------14--15-|
|----------------------------------------------------|
|----------------------------------------------------|
|----------------------------------------------------|
|----------------------------------------------------|
|
|  PM---------------|                    PM---|
|  S  S  S  S  S  S  E       E     E     S  S  E
|----------------------------------------------------|
|----------------------------------------------------|
|----------------------------------------------------|
|----------------------------6-----------------------|
|----------------------------------7-----------------|
|--4--4--4--4--4--4--4-------------------4--4--4-----|


   +S   E    S  S  S  S.  T  +S   E    S  S  S  S.    T
|-----------14-15-17------------------15-16-18-----------|
|-(15)-17------------15--16-(16)-18------------16----17--|
|--------------------------------------------------------|
|--------------------------------------------------------|
|--------------------------------------------------------|
|--------------------------------------------------------|
|
|               PM---|                    PM-------|
|   E     E     S  S  E       E     E     S  S  S  S
|--------------------------------------------------------|
|--------------------------------------------------------|
|--------------------------------------------------------|
|---5-------------------------------7--------------------|
|---------6-------------------5--------------------------|
|---------------4--4--4-------------------4--4--4--4-----|


   +S   E    S  S  S  S.  T  +S   E    S  S  S  S.  T
|-----------16-17-19------------------17-18-20--------|
|-(17)-19------------17--18-(18)-20------------18--19-|
|-----------------------------------------------------|
|-----------------------------------------------------|
|-----------------------------------------------------|
|-----------------------------------------------------|
|
|   PM---------------|                    PM---|
|   S   S S  S  S  S  E       E     E     S  S  E
|-----------------------------------------------------|
|-----------------------------------------------------|
|-----------------------------------------------------|
|-----------------------------6-----------------------|
|-----------------------------------7-----------------|
|---4---4-4--4--4--4--4-------------------4--4--4-----|


   +S   E    S  S  S  S.  T  +E   E     Q
|-----------18-19-22-------------------19----------|
|-(19)-21------------19--22-(22)-22b24-22b24-------|
|--------------------------------------------------|
|--------------------------------------------------|
|--------------------------------------------------|
|--------------------------------------------------|
|
|               PM---|                  PM-------|
|   E     E     S  S  E       E   E     S    S S S
|--------------------------------------------------|
|--------------------------------------------------|
|--------------------------------------------------|
|---5-------------------------4--------------------|
|---------6-----------------------5----------------|
|---------------4--4--4-----------------4----4-4-4-|


   Q           E        a       +E    E      S  S  S  S  S      +S
|-------------------------------------------------------------------|
|-22b24-------22b24r==(22)b24==(22)r-22b24==22-22-22-22r22b24==(22)-|
|-------------------------------------------------------------------|
|-------------------------------------------------------------------|
|-------------------------------------------------------------------|
|-------------------------------------------------------------------|
|
|  PM--------------------------|                   PM---|
|  S    S S S  S    S            E    E      E     S  S  E
|-------------------------------------------------------------------|
|-------------------------------------------------------------------|
|-------------------------------------------------------------------|
|-------------------------------------6-----------------------------|
|--------------------------------------------7----------------------|
|--4----4-4-4--4----4------------4-----------------4--4--4----------|


   +E    a       +E   E    S  S  S  E.       +E      E
|---------------------------------------------------16-------|
|-(22)r(22)b24==(22)r-----19-22-22------------------19b21====|
|---------------------x------------21b23====(21)r------------|
|------------------------------------------------------------|
|------------------------------------------------------------|
|------------------------------------------------------------|
|
|                     PM--|                   PM-----------|
|   E             E   S S  E     E        E   S   S  S     S
|------------------------------------------------------------|
|------------------------------------------------------------|
|------------------------------------------------------------|
|---5-------------------------------------7------------------|
|-----------------6--------------5---------------------------|
|---------------------4-4--4------------------4---4--4-----4-|


                   ~~~~~~~~~~~~~~~~~~~~~~~~
   +Q.            +E   +H             +Q.         E H
|-(16)-----------(16)-(16)---------|-(16)------------------------|
|-(19)-----------(19)-(19)---------|-(19)r-----------------------|
|----------------------------------|-----------------------------|
|----------------------------------|-----------------------------|
|----------------------------------|-----------------------------|
|----------------------------------|-------------14s2/-----------|
|
|   PM-----------|           PM--|           PM--|       PM----|
|   S  S S S S S   E    E  E S S E     E   E S S  E E  E S S S S
|----------------------------------|-----------------------------|
|----------------------------------|-----------------------------|
|----------------------------------|-----------------------------|
|-----------------------6----------|---5-------------------------|
|--------------------------7-------|-------6--------5--7---------|
|---4--4-4-4-4-4---4---------4-4-4-|---------4-4--4------4-4-4-4-|


   S  S  E    S  S  E  S  S  E  S  S  S  S
|------------------------------------------|
|------------------------------------------|
|------------------------------------------|
|------------10----10-12-10-12-15-14-15-17-|
|-12-10-12------12-------------------------|
|------------------------------------------|
|
|  PM--------------|            PM---|
|  S  S  S S  S  S  E  E     E  S  S  E
|------------------------------------------|
|------------------------------------------|
|------------------------------------------|
|----------------------6-------------------|
|----------------------------7-------------|
|--4--4--4-4--4--4--4-----------4--4--4----|


   S  S  E  S  S  S  S  S  S  S  S  S  S  S  S
|----------------------------------------14-15-|
|----------------------14-15-17-14-15-17-------|
|-------14-17-14-15-17-------------------------|
|-14-17----------------------------------------|
|----------------------------------------------|
|----------------------------------------------|
|
|           PM---|                  PM------|
|  E     E  S  S  E     E     E     S  S  S  S
|----------------------------------------------|
|----------------------------------------------|
|----------------------------------------------|
|--5--------------------------7----------------|
|--------6--------------5----------------------|
|-----------4--4--4-----------------4--4--4--4-|


   S  S  E    S  S  S  S  S  S  S  S  S  S  E
|-14-15-14---17-14--------------------------------|
|------------------15-14-15-14-------15-14-17-----|
|------------------------------16-14-------16b18==|
|-------------------------------------------------|
|-------------------------------------------------|
|-------------------------------------------------|
|
|  PM--------------|                  PM---|
|  S  S  S S  S  S  E     E     E     S  S  E
|-------------------------------------------------|
|-------------------------------------------------|
|-------------------------------------------------|
|-------------------------6-----------------------|
|-------------------------------7-----------------|
|--4--4--4-4--4--4--4-----------------4--4--4-----|


   +Q.        +E   +Q     +E       E
|--------------------------------/17---||
|-(17)-------(17)-(17)---(17)\---------||
|-(16)-------(16)-(16)r==(16)\---------||
|--------------------------------------||
|--------------------------------------||
|--------------------------------------||
|
|        PM--|             PM--------|
|   E  E S S   E    E  E   S   S   S S
|--------------------------------------||
|--------------------------------------||
|--------------------------------------||
|---5---------------4------------------||
|------6---------------5---------------||
|--------4-4---4-----------4---4---4-4-||


   E  S  S  E  S  S  E  S  S  S  S  S  S
|-21-17-17-17----17-22-17-17-20-17----17-|
|-------------20-------------------20----|
|----------------------------------------|
|----------------------------------------|
|----------------------------------------|
|----------------------------------------|
|
|     PM---|            PM---|
|  E  S  S  E  E     E  S  S  E     E
|----------------------------------------|
|----------------------------------------|
|----------------------------------------|
|--9-------------------------------------|
|--7-----------5-----7--------------5----|
|-----0--0--0-----------0--0--0----------|


   E  E    S  S  S  S  E  E  S  S  S  S
|-22-17---20-17----17-22-17-20-17----17-|
|---------------20----------------20----|
|---------------------------------------|
|---------------------------------------|
|---------------------------------------|
|---------------------------------------|
|
|     PM--|               PM
|  E  S S  E     E     E  E  Q
|---------------------------------------|
|---------------------------------------|
|---------------------------------------|
|---------------------------10----------|
|--7-------------5-----7-----8----------|
|-----0-0--0--------------0-------------|


   Q.          E     E.      S      +E    E       E     S  S  E  E  H
|-17----------17----17------17-----(17)--17----|-------17-17----------------|
|-20b22-------20b22-20b22---20b22==(20)r-20b22-|-20b22-------20s10s22\------|
|----------------------------------------------|----------------------------|
|----------------------------------------------|----------------------------|
|----------------------------------------------|----------------------------|
|----------------------------------------------|----------------------------|
|
|       PM--|             PM-------|                    PM---|         PM
|  E    S S E  E     E    S  S       E    E       E     S  S  E  E  E  E Q
|----------------------------------------------|----------------------------|
|----------------------------------------------|----------------------------|
|----------------------------------------------|----------------------------|
|----------------------------------------------|----------------------------|
|--2-----------5-----7--------------------5----|--7--------------5--7----3--|
|--0----0-0-0-------------0--0-------0---------|--------0--0--0--------0-1--|


                  \2/                \1.5/                             \3.5
                                                     ~~~~~~~~~~~~~~
  E  E    +E.    +S    +Q       +S   E.         +E   Q.        +Q.     E
|--------------------------------------------|------------------------------|
|---14---(14)---(14)--(14)-----(14)-15-------|-(15)-12--------(12)----------|
|--------------------------------------------|-------------------------0----|
|-x------------------------------------------|------------------------------|
|--------------------------------------------|------------------------------|
|--------------------------------------------|------------------------------|
|
|    PM--|                 PM--|                     PM---|        PM
| E  S S   E  E         E  S S   E         E     E   S  S E E   E  E Q
|--------------------------------------------|------------------------------|
|--------------------------------------------|------------------------------|
|--------------------------------------------|------------------------------|
|--------------------------------------------|------------------------------|
|-2-----------5---------7------------------5-|---7----------5---7----3------|
|-0--0-0---0---------------0-0---0-----------|-------0--0-0--------0-1------|


                                                       7/8
                   \7                     \7  |
                                                         ~~~~~~~~~~~~~~~
  +H          +E   Q.          +Q.        E  +H          H         +Q.
|---------------------------|-------------------------|---------------------||
|---------------------------|-------------------------|---------------------||
|-(0)---------(0)-<3>-------|-(<3>)-------------------|-<4>-------(<4>)-----||
|---------------------------|-------------------------|---------------------||
|---------------------------|-------------0--(0)------|---------------------||
|---------------------------|-------------------------|---------------------||
|
|     PM--|        PM---|           PM--|        PM
|  E  S S E E  E   S  S E E     E   S S E E   E  E Q     E  E E E   E   E E
|---------------------------|-------------------------|---------------------||
|---------------------------|-------------------------|---------------------||
|---------------------------|-------------------------|---------------------||
|---------------------------|-------------------------|--9------9---9-------||
|--2--------5--7----------5-|---7---------5---7----3--|--7------7---7-------||
|--0--0-0-0--------0--0-0---|-------0-0-0--------0-1--|--0------0---0-------||


 Bridge
 4/4
  Gtrs I, II
  PM------------|            PM------------|
  S S S S S S S S S S E Q    S S S S S S S S Q  Q
|--------------------------|-----------------------|
|--------------------------|-----------------------|
|--------------------------|-----------------------|
|-----------------------3--|-----------------7--6--|
|-----------------2-1-0-1--|-----------------5--4--|
|-0-0-0-0-0-0-0-0----------|-0-0-0-0-0-0-0-0-------|


  PM------------|            PM------------|
  S S S S S S S S S S E Q    S S S S S S S S S S E S S E
|--------------------------|-------------------------------|
|--------------------------|-------------------------------|
|--------------------------|-------------------------------|
|-----------------------3--|-------------------------------|
|-----------------2-1-0-1--|-----------------2-1-0-1-0-----|
|-0-0-0-0-0-0-0-0----------|-0-0-0-0-0-0-0-0-----------3---|


  PM------------|            PM------------|
  S S S S S S S S S S E Q    S S S S S S S S Q  Q
|--------------------------|-----------------------|
|--------------------------|-----------------------|
|--------------------------|-----------------------|
|-----------------------3--|-----------------7--6--|
|-----------------2-1-0-1--|-----------------5--4--|
|-0-0-0-0-0-0-0-0----------|-0-0-0-0-0-0-0-0-------|


  PM------------|            PM------------|
  S S S S S S S S S S E Q    S S S S S S S S S S E S S E
|--------------------------|--------------------------------|
|--------------------------|--------------------------------|
|--------------------------|--------------------------------|
|-----------------------3--|--------------------------------|
|-----------------2-1-0-1--|-----------------2-1-0-1-0------|
|-0-0-0-0-0-0-0-0----------|-0-0-0-0-0-0-0-0-----------3----|


  PM------------|            PM------------|
  S S S S S S S S S S E Q    S S S S S S S S Q  Q
|--------------------------|-----------------------|
|--------------------------|-----------------------|
|--------------------------|-----------------------|
|-----------------------3--|-----------------7--6--|
|-----------------2-1-0-1--|-----------------5--4--|
|-0-0-0-0-0-0-0-0----------|-0-0-0-0-0-0-0-0-------|


  PM------------|            PM------------|
  S S S S S S S S S S E Q    S S S S S S S S S S E S S E
|--------------------------|--------------------------------|
|--------------------------|--------------------------------|
|--------------------------|--------------------------------|
|-----------------------3--|--------------------------------|
|-----------------2-1-0-1--|-----------------2-1-0-1-0------|
|-0-0-0-0-0-0-0-0----------|-0-0-0-0-0-0-0-0-----------3----|


  PM------------|            PM------------|
  S S S S S S S S S S E Q    S S S S S S S S Q  Q
|--------------------------|-----------------------|
|--------------------------|-----------------------|
|--------------------------|-----------------------|
|-----------------------3--|-----------------7--6--|
|-----------------2-1-0-1--|-----------------5--4--|
|-0-0-0-0-0-0-0-0----------|-0-0-0-0-0-0-0-0-------|


  PM------------|            PM------------|
  S S S S S S S S S S E Q    S S S S S S S S S S E S S E
|--------------------------|--------------------------------||
|--------------------------|--------------------------------||
|--------------------------|--------------------------------||
|-----------------------3--|--------------------------------||
|-----------------2-1-0-1--|-----------------2-1-0-1-0------||
|-0-0-0-0-0-0-0-0----------|-0-0-0-0-0-0-0-0-----------3----||


           PM----------------------------------------------|
    E E Q  S S S S S S S S   S S S S S S S S S S S S S S S S  4x
||-------------------------|----------------------------------||
||o------------------------|---------------------------------o||
||-------------------------|----------------------------------||
||--9-8--------------------|----------------------------------||
||o-7-7--------------------|---------------------------------o||
||---------0-0-0-0-0-0-0-0-|-0-0-0-0-0-0-0-0-0-0-0-0-0-0-0-0--||


 Verse 3
      PM--|      PM--|       PM--|      PM--|
  E E S S E E  E S S E   E E S S E E  E S S E
|----------------------|----------------------|
|----------------------|----------------------|
|----------------------|----------------------|
|-9-8-------9----------|-8-----------10-------|
|-7-7---------10-------|---9-------8----------|
|-----0-0-0------0-0-0-|-----0-0-0------0-0-0-|


      PM--|      PM--|       PM--|      PM--|
  E E S S E E  E S S E   E E S S E E  E S S E
|----------------------|-----------------------|
|----------------------|-----------------------|
|----------------------|-----------------------|
|-9-8-------9----------|-8---------------------|
|-7-7---------10-------|---9-------8-10--------|
|-----0-0-0------0-0-0-|-----0-0-0------0-0-0--|


      PM--|      PM--|       PM--|      PM--|
  E E S S E E  E S S E   E E S S E E  E S S E
|----------------------|----------------------|
|----------------------|----------------------|
|----------------------|----------------------|
|-9-8-------9----------|-8-----------10-------|
|-7-7---------10-------|---9-------8----------|
|-----0-0-0------0-0-0-|-----0-0-0------0-0-0-|


      PM--|      PM--|       PM--|     PM--|
  E E S S E E  E S S E   E E S S E E E S S E
|----------------------|----------------------||
|----------------------|----------------------||
|----------------------|----------------------||
|-9-8-------9----------|-8---------7----------||
|-7-7---------10-------|---9---------8--------||
|-----0-0-0------0-0-0-|-----0-0-0-----0-0-0--||


 Out-Chorus
  Gtr I
                                               PM--|     PM--|
   W                      W                  E S S E E E S S E E
|----------------------|-------------------|---------------------|
|----------------------|-------------------|---------------------|
|----------------------|-------------------|---------------------|
|-16-------------------|-15----------------|-9-------------------|
|-14-------------------|-13----------------|-7-------5-7-------5-|
|----------------------|-------------------|---0-0-0-----0-0-0---|
|
| Gtr II
|    PM--|     PM--|        PM--|     PM       PM--|     PM--|
|  E S S E E E S S E E    E S S E E E E Q    E S S E E E S S E E
|----------------------|-------------------|---------------------|
|----------------------|-------------------|---------------------|
|----------------------|-------------------|---------------------|
|--9-------------------|-------------------|---------------------|
|--7-------5-7-------5-|--7-------5-7---3--|-2-------0-2-------0-|
|----0-0-0-----0-0-0---|----0-0-0-----0-1--|-0-0-0-0-----0-0-0---|


    PM--|     PM
  E S S E E E E  Q    W                     W
|-------------------|---------------------|------------------|
|-------------------|---------------------|------------------|
|-------------------|---------------------|------------------|
|---------------10--|-4-------------------|-3----------------|
|-7-------5-7----8--|-2-------------------|-1----------------|
|---0-0-0-----0-----|---------------------|------------------|
|
|   PM--|     PM        PM--|     PM--|       PM--|     PM
| E S S E E E E  Q    E S S E E E S S E E   E S S E E E E Q
|-------------------|---------------------|------------------|
|-------------------|---------------------|------------------|
|-------------------|---------------------|------------------|
|-------------------|---------------------|------------------|
|-2-------0-2----3--|-2-------5-7-------5-|-7-------5-7---3--|
|---0-0-0-----0--1--|-0-0-0-0-----0-0-0---|---0-0-0-----0-1--|


    PM--|     PM--|       PM--|     PM
  E S S E E E S S E E   E S S E E E E  Q
|---------------------|-------------------|
|---------------------|-------------------|
|---------------------|-------------------|
|-9-------------------|---------------10--|
|-7-------5-7-------5-|-7-------5-7----8--|
|---0-0-0-----0-0-0---|---0-0-0-----0-----|
|
|   PM--|     PM--|       PM--|     PM
| E S S E E E S S E E   E S S E E E E  Q
|---------------------|-------------------|
|---------------------|-------------------|
|---------------------|-------------------|
|---------------------|-------------------|
|-2-------0-2-------0-|-2-------0-2----3--|
|-0-0-0-0-----0-0-0---|---0-0-0-----0--1--|


  E E E E E E E E   Q  Q  H
|-----------------|------------*|
|-----------------|------------*|
|-----------------|------------*|
|-9-----9-9-----9-|-9----------*|
|-7-----7-7-----7-|-7----------*|
|-----------------|------------*|
|
| E E E E E E E E   Q  Q  H
|-----------------|------------*|
|-----------------|------------*|
|-----------------|------------*|
|-----------------|------------*|
|-2-----2-2-----2-|-2----------*|
|-0-----0-0-----0-|-0----------*|



Duration Legend
---------------
W - whole; H - half; Q - quarter; E - 8th; S - 16th; T - 32nd; X - 64th; a - acciaccatura
+ - note tied to previous; . - note dotted; .. - note double dotted
Uncapitalized letters represent notes that are staccato (1/2 duration)
Irregular groupings are notated above the duration line
Duration letters will always appear directly above the note/fret number it represents the
duration for.  Duration letters with no fret number below them represent rests.  Multi-
bar rests are notated in the form Wxn, where n is the number of bars to rest for.  Low
melody durations appear below the staff

Tablature Legend
----------------
 h   - hammer-on
 p   - pull-off
 b   - bend
 pb  - pre-bend
 r   - bend release (if no number after the r, then release immediately)
 /\  - slide into or out of (from/to "nowhere")
 s   - legato slide
 S   - shift slide
 - natural harmonic
[n]  - artificial harmonic
n(n) - tapped harmonic
 ~   - vibrato
 tr  - trill
 T   - tap
 TP  - trem. picking
 PM  - palm muting
\n/  - tremolo bar dip; n = amount to dip
 \n  - tremolo bar down
 n/  - tremolo bar up
/n\  - tremolo bar inverted dip
 =   - hold bend; also acts as connecting device for hammers/pulls
 <> - volume swell (louder/softer)
 x   - on rhythm slash represents muted slash
 o   - on rhythm slash represents single note slash

Misc Legend
-----------
 |  - bar
||  - double bar
||o - repeat start
o|| - repeat end
*|  - double bar (ending)
 :  - bar (freetime)
 $  - Segno
 &  - Coda
Tempo markers -  = BPM(8/16=s8/s16), where s8 = swing 8ths, s16 = swing 16ths

Tap to rate this tab
 
# A B C D E F G H I J K L M N O P Q R S T U V W X Y Z