Song name
# A B C D E F G H I J K L M N O P Q R S T U V W X Y Z

Slayer - Born Of Fire tab

#----------------------------------PLEASE NOTE---------------------------------#
#This file is the author's own work and represents their interpretation of the #
#song. You may only use this file for private study, scholarship, or research. #
#------------------------------------------------------------------------------#

BORN OF FIRE
As recorded by Slayer
(From the 1990 Album SEASONS IN THE ABYSS)

Transcribed by Fenian
	

Words by Kerry King Music by Krry King & Jeff Hanneman

Gtr I (Eb Ab Db Gb Bb Eb) - 'Untitled'
Gtr II (Eb Ab Db Gb Bb Eb) - 'Untitled'
Gtr III (Eb Ab Db Gb Bb Eb) - 'Untitled'

 Intro
  Q=184
 4/4
  Gtrs I, II
          PM----|        PM----|    PM----|      PM----|    PM----|
  H    Q  S S S S     Q  S S S S Q  S S S S   Q  S S S S Q  S S S S   3x
|-----------------||------------------------|-------------------------||
|-----------------||o-----------------------|------------------------o||
|-----------------||------------------------|-------------------------||
|-----------------||------------------------|-2----------5------------||
|-----------------||o-4----------3----------|-0----------3-----------o||
|---------5-3-2-0-||--2--5-3-2-0-1--5-3-2-0-|----5-3-2-0----5-3-2-0---||


     PM----|    PM----|      PM----|    PM|
  Q  S S S S Q  S S S S   Q  S S S S Q  E E
|-----------------------|-------------------||
|-----------------------|-------------------||
|-----------------------|-------------------||
|-----------------------|-2----------5------||
|-4----------3----------|-0----------3------||
|-2--5-3-2-0-1--5-3-2-0-|----5-3-2-0----0-2-||


    Verse 1 & 2
    PM--------------------------------------------------|
    E S S S S S S S S S S E E   E S S S S S S S S S S E E
||----------------------------|---------------------------|
||o---------------------------|---------------------------|
||----------------------------|---------------------------|
||----------------------------|---------------------------|
||o---------------------------|---------------------------|
||--3-2-2-2-2-2-2-2-2-2-2-0-2-|-5-2-2-2-2-2-2-2-2-2-2-0-2-|


  PM--------------------------|      PM----|    PM|
  E S S S S S S S S S S S S S S   Q  S S S S Q  E E
|-------------------------------|-------------------|
|-------------------------------|-------------------|
|-------------------------------|-------------------|
|-------------------------------|------------3------|
|-------------------------------|-5----------1------|
|-3-2-2-2-2-2-2-2-2-2-2-0-2-2-2-|-3--0-2-2-2----0-2-|


  PM--------------------------------------------------|
  E S S S S S S S S S S E E   E S S S S S S S S S S E E
|---------------------------|---------------------------|
|---------------------------|---------------------------|
|---------------------------|---------------------------|
|---------------------------|---------------------------|
|---------------------------|---------------------------|
|-3-2-2-2-2-2-2-2-2-2-2-0-2-|-5-2-2-2-2-2-2-2-2-2-2-0-2-|


  PM--------------------------|      PM----|    PM|
  E S S S S S S S S S S S S S S   Q  S S S S Q  E E
|-------------------------------|-------------------|
|-------------------------------|-------------------|
|-------------------------------|-------------------|
|-------------------------------|------------3------|
|-------------------------------|-5----------1------|
|-3-2-2-2-2-2-2-2-2-2-2-0-2-2-2-|-3--0-2-2-2----0-2-|


  PM--------------------------------------------------|
  E S S S S S S S S S S E E   E S S S S S S S S S S E E
|---------------------------|---------------------------|
|---------------------------|---------------------------|
|---------------------------|---------------------------|
|---------------------------|---------------------------|
|---------------------------|---------------------------|
|-3-2-2-2-2-2-2-2-2-2-2-0-2-|-5-2-2-2-2-2-2-2-2-2-2-0-2-|


  PM--------------------------|      PM----|    PM|
  E S S S S S S S S S S S S S S   Q  S S S S Q  E E
|-------------------------------|-------------------|
|-------------------------------|-------------------|
|-------------------------------|-------------------|
|-------------------------------|------------3------|
|-------------------------------|-5----------1------|
|-3-2-2-2-2-2-2-2-2-2-2-0-2-2-2-|-3--0-2-2-2----0-2-|


  PM--------------------------------------------------|
  E S S S S S S S S S S E E   E S S S S S S S S S S E E
|---------------------------|---------------------------|
|---------------------------|---------------------------|
|---------------------------|---------------------------|
|---------------------------|---------------------------|
|---------------------------|---------------------------|
|-3-2-2-2-2-2-2-2-2-2-2-0-2-|-5-2-2-2-2-2-2-2-2-2-2-0-2-|


                                 3/4
  PM--------------------------|      PM----|
  E S S S S S S S S S S S S S S   Q  S S S S Q
|-------------------------------|---------------||
|-------------------------------|---------------||
|-------------------------------|---------------||
|-------------------------------|------------3--||
|-------------------------------|-5----------1--||
|-3-2-2-2-2-2-2-2-2-2-2-0-2-2-2-|-3--0-2-2-2----||


 Pre-Chorus
 4/4
    PM--------------------------------------------|
                                                    |-3-|
  S S S S S S S S S S S S S S S S   S S S S S S S S Q Q Q
|---------------------------------|-----------------------|
|---------------------------------|-----------------------|
|---------------------------------|-----------------------|
|---------------------------------|-----------------------|
|-5-------------------------------|-----------------8-8-8-|
|-3-3-3-3-3-3-3-3-3-3-3-3-3-3-3-3-|-3-3-3-3-3-3-3-3-6-6-6-|


    PM------------------------------------------------------------|
  S S S S S S S S S S S S S S S S   S S S S S S S S S S S S S S S S
|---------------------------------|----------------------------------|
|---------------------------------|----------------------------------|
|---------------------------------|----------------------------------|
|---------------------------------|----------------------------------|
|-4-------------------------------|----------------------------------|
|-2-2-2-2-2-2-2-2-2-2-2-2-2-2-2-2-|-2-2-2-2-2-2-2-2-2-2-2-2-2-2-2-2--|


    PM--------------------------------------------|
                                                    |-3-|
  S S S S S S S S S S S S S S S S   S S S S S S S S Q Q Q
|---------------------------------|-----------------------|
|---------------------------------|-----------------------|
|---------------------------------|-----------------------|
|---------------------------------|-----------------------|
|-5-------------------------------|-----------------8-8-8-|
|-3-3-3-3-3-3-3-3-3-3-3-3-3-3-3-3-|-3-3-3-3-3-3-3-3-6-6-6-|


    PM------------------------------------------------------------|
  S S S S S S S S S S S S S S S S   S S S S S S S S S S S S S S S S
|---------------------------------|----------------------------------||
|---------------------------------|----------------------------------||
|---------------------------------|----------------------------------||
|---------------------------------|----------------------------------||
|-4-------------------------------|----------------------------------||
|-2-2-2-2-2-2-2-2-2-2-2-2-2-2-2-2-|-2-2-2-2-2-2-2-2-2-2-2-2-5-3-2-0--||


 Chorus
     PM----|    PM----|      PM----|    PM----|
  Q  S S S S Q  S S S S   Q  S S S S Q  S S S S
|-----------------------|-----------------------|
|-----------------------|-----------------------|
|-----------------------|-----------------------|
|-----------------------|-2----------5----------|
|-4----------3----------|-0----------3----------|
|-2--5-3-2-0-1--5-3-2-0-|----5-3-2-0----5-3-2-0-|


     PM----|    PM----|      PM----|    PM----|
  Q  S S S S Q  S S S S   Q  S S S S Q  S S S S
|-----------------------|-------------------------|
|-----------------------|-------------------------|
|-----------------------|-------------------------|
|-----------------------|-2----------5------------|
|-4----------3----------|-0----------3------------|
|-2--5-3-2-0-1--5-3-2-0-|----5-3-2-0----5-3-2-0---|


     PM----|    PM----|      PM----|    PM----|
  Q  S S S S Q  S S S S   Q  S S S S Q  S S S S
|-----------------------|-----------------------|
|-----------------------|-----------------------|
|-----------------------|-----------------------|
|-----------------------|-2----------5----------|
|-4----------3----------|-0----------3----------|
|-2--5-3-2-0-1--5-3-2-0-|----5-3-2-0----5-3-2-0-|


                         1.
     PM----|    PM----|      PM----|    PM----|
  Q  S S S S Q  S S S S   Q  S S S S Q  S S S S
|-----------------------|--------------------------||
|-----------------------|-------------------------o||
|-----------------------|--------------------------||
|-----------------------|-2----------5-------------||
|-4----------3----------|-0----------3------------o||
|-2--5-3-2-0-1--5-3-2-0-|----5-3-2-0----5-3-2-0----||


 Guitar Solo I
  2.
  Gtr III
                                            ~~~~~
  H          E  E  E    E       Q          +Q          Q           +E.    S
|---------------------------||----------------------------------------------|
|----------------------12---||-15b17======(15)r-------15b18r======(15)p==12-|
|------------7s12h14--------||----------------------------------------------|
|---------------------------||----------------------------------------------|
|---------------------------||----------------------------------------------|
|---------------------------||----------------------------------------------|
|
| Gtrs I, II
|    PM----|       PM--------------------------------------------------------
| Q  S S S S Q     S S  S S     E     S S   S   S S S  S    S S S   E  E
|---------------------------||----------------------------------------------|
|---------------------------||----------------------------------------------|
|---------------------------||----------------------------------------------|
|-2----------5--------------||----------------------------------------------|
|-0----------3--------------||----------------------------------------------|
|----5-3-2-0-------5-3--2-0-||--3-----2-2---2---2-2-2--2----2-2-2---0--2----|


                   ~~~~~~~~~~~~~~~~~
   S     +S   E    Q            +Q.          +E
|---------------------------------------------------|
|---------------------------------------------------|
|-14b16r(14)p12---14b16========(14)---------(14)r\--|
|---------------------------------------------------|
|---------------------------------------------------|
|---------------------------------------------------|
|
|-------------------------------------------|
|  E          S S  S     S S S   S  S S S E   E
|---------------------------------------------------|
|---------------------------------------------------|
|---------------------------------------------------|
|---------------------------------------------------|
|---------------------------------------------------|
|--5----------2-2--2-----2-2-2---2--2-2-2-0---2-----|


   PM-----|
   |---3---|    |----3----|    |----3----|    |----3----|
   E  E    E    E    E    E    E    E    E    E    E    E
|-----------------------------------------------------------|
|-----------------------------------------------------------|
|-----------------------------------------------------------|
|--------------------------------------------12--------12---|
|--------------10--------10---14---12---14--------14--------|
|-12-10---12--------12--------------------------------------|
|
|  PM-----------------------------------------------------|
|  E    S    S  S S    S    S  S S    S    S  S S    S    S
|-----------------------------------------------------------|
|-----------------------------------------------------------|
|-----------------------------------------------------------|
|-----------------------------------------------------------|
|-----------------------------------------------------------|
|--3----2----2--2-2----2----2--2-2----2----2--0-2----2----2-|


   E  E  E    E    E  E  E       +S   +S
|-------------------------------------------|
|-------------------------------------------|
|------------12------12-14b16.5r(14)-(14)\--|
|-14-12-14--------14------------------------|
|-------------------------------------------|
|-------------------------------------------|
|
|        PM-----|        PM-----|
|  Q     S S  S S  Q     E        E
|-------------------------------------------|
|-------------------------------------------|
|-------------------------------------------|
|------------------3------------------------|
|--5---------------1------------------------|
|--3-----0-2--2-2--------0--------2---------|


  PM------------------------------------------|
  |--3---|    |---3----|   |---3----|   |--3--|
  E  E   E    E   E    E   E    E   E   E E   E
|-----------------------------------------------|
|-----------------------------------------------|
|-----------------------------------------------|
|--------------------------7--------7---9-7---9-|
|-7------7---10---7---10-------10---------------|
|---10------------------------------------------|
|
| PM---------------------------------------------
| E    S   S  S S   S    S S S    S   S E   E
|-----------------------------------------------|
|-----------------------------------------------|
|-----------------------------------------------|
|-----------------------------------------------|
|-----------------------------------------------|
|-3----2---2--2-2---2----2-2-2----2---2-0---2---|


  E E   E   E   E    Q.
|------------------------------------|
|------------------------------------|
|-7---------7---9---[9]b11.5=========|
|---9--------------------------------|
|------------------------------------|
|------------------------------------|
|
|---------------------------------|
| E S S S S S S S S  S        S E E
|------------------------------------|
|------------------------------------|
|------------------------------------|
|------------------------------------|
|------------------------------------|
|-5-2-2-2-2-2-2-2-2--2--------2-0-2--|


                                                    3/4
                                                     \1.5
   +E      Q.                 +Q.             E      H.
|--------------------------------------------------|------------------|
|--------------------------------------------------|------------------|
|-([9])r-[12]b14============([12])r----------------|-0----------------|
|--------------------------------------------------|------------------|
|---------------------------------------------x\---|------------------|
|--------------------------------------------------|------------------|
|
|   PM-------------------------------------------|         PM----|
|   E      S      S S S S S    S    S S S S S S  S   Q     S S S S Q
|--------------------------------------------------|------------------|
|--------------------------------------------------|------------------|
|--------------------------------------------------|------------------|
|--------------------------------------------------|---------------3--|
|--------------------------------------------------|-5-------------1--|
|---3------2------2-2-2-2-2----2----2-2-2-0-2-2--2-|-3-----0-2-2-2----|


 4/4
   ~~~~~~~~~~~~~~~~~~~~~~~~~~~~~~~~~~~~~
   W
|--------------------------------------|
|-15b17================================|
|--------------------------------------|
|--------------------------------------|
|--------------------------------------|
|--------------------------------------|
|
|        PM-----------------------------
|  S     S S S S S S S S S S S S S S S
|--------------------------------------|
|--------------------------------------|
|--------------------------------------|
|--------------------------------------|
|--5-----------------------------------|
|--3-----3-3-3-3-3-3-3-3-3-3-3-3-3-3-3-|


 ~~~~~~~                                     ~~~~~
   +H                  Q         +E     E    W
|-----------------------------------------|--------------------------------------|
|-(15)r---------------17b19.5r==(17)p==14-|--------------------------------------|
|-----------------------------------------|-16b18--------------------------------|
|-----------------------------------------|--------------------------------------|
|-----------------------------------------|--------------------------------------|
|-----------------------------------------|--------------------------------------|
|
|-------------------|                             PM--------------------------|
|                      |------3------|
|   S   S S S S S S S  Q      Q      Q       S    S S S S S S S S S S S S S S S
|-----------------------------------------|--------------------------------------|
|-----------------------------------------|--------------------------------------|
|-----------------------------------------|--------------------------------------|
|-----------------------------------------|--------------------------------------|
|----------------------8------8------8----|--4-----------------------------------|
|---3---3-3-3-3-3-3-3--6------6------6----|--2----2-2-2-2-2-2-2-2-2-2-2-2-2-2-2--|


  \1.75
                                         ~~~~~~~~~~~~~~~~~~~~~~~~~~~~~~~~~~~~~
  W                                      W
|-------------------------------------|--------------------------------------|
|-------------------------------------|-15b17================================|
|-0-----------------------------------|--------------------------------------|
|-------------------------------------|--------------------------------------|
|-------------------------------------|--------------------------------------|
|-------------------------------------|--------------------------------------|
|
| PM--------------------------------|          PM-----------------------------
| S     S S S S S S S S S S S S S S S    S     S S S S S S S S S S S S S S S
|-------------------------------------|--------------------------------------|
|-------------------------------------|--------------------------------------|
|-------------------------------------|--------------------------------------|
|-------------------------------------|--------------------------------------|
|-------------------------------------|--5-----------------------------------|
|-2-----2-2-2-2-2-2-2-2-2-2-2-2-2-2-2-|--3-----3-3-3-3-3-3-3-3-3-3-3-3-3-3-3-|


 ~~~~~~~
   +H                  Q         +E     E
|-------------------------------------------|
|-(15)r---------------17b19.5r==(17)p==14---|
|-------------------------------------------|
|-------------------------------------------|
|-------------------------------------------|
|-------------------------------------------|
|
|-------------------|
|                      |------3------|
|   S   S S S S S S S  Q      Q      Q
|-------------------------------------------|
|-------------------------------------------|
|-------------------------------------------|
|-------------------------------------------|
|----------------------8------8------8------|
|---3---3-3-3-3-3-3-3--6------6------6------|


                 \7__________________
   W             W
|--------------|--------------------|
|--------------|--------------------|
|-16b18--------|--------------------|
|--------------|--------------------|
|--------------|--------------------|
|--------------|-2------------------|
|
|                           PM----|
|  W             H      Q   S S S S
|--------------|--------------------|
|--------------|--------------------|
|--------------|--------------------|
|-11-----------|--------------------|
|--9-----------|--------------------|
|--------------|-x\-----x\--5-3-2-0-|


                                                     |
  ~~~~~~~~~~~~~~~~~~~~~~~~~~~~~~~~~~~~~~~~~~~~~~~~~~~~~~
  W                       +W                        +W
|-----------------------|-------------------------|-------------------------|
|-----------------------|-------------------------|-------------------------|
|-----------------------|-------------------------|-------------------------|
|-----------------------|-------------------------|-------------------------|
|-----------------------|-------------------------|-------------------------|
|-0---------------------|-(0)---------------------|-(0)---------------------|
|
|    PM----|    PM----|        PM----|    PM----|        PM----|    PM----|
| Q  S S S S Q  S S S S    Q   S S S S Q  S S S S    Q   S S S S Q  S S S S
|-----------------------|-------------------------|-------------------------|
|-----------------------|-------------------------|-------------------------|
|-----------------------|-------------------------|-------------------------|
|-----------------------|--2-----------5----------|-------------------------|
|-4----------3----------|--0-----------3----------|--4-----------3----------|
|-2--5-3-2-0-1--5-3-2-0-|------5-3-2-0----5-3-2-0-|--2---5-3-2-0-1--5-3-2-0-|


    /1\    /1\       /1\         /1\    \1____/    \1.5____/
    |--3---|    |-----3-----|
    E   E  E    E    E      E    Q      S    +S   +S      +S
|-------------------------------------------------------------|
|-------------------------------------------------------------|
|-/12s==9s14s==11s==16s====14s==12----/12---(12)-(12)----(12)-|
|-------------------------------------------------------------|
|-------------------------------------------------------------|
|-------------------------------------------------------------|
|
|               PM------------|         PM---------------|
|   Q           S S      S    S  Q      S     S    S       S
|-------------------------------------------------------------|
|-------------------------------------------------------------|
|-------------------------------------------------------------|
|---2----------------------------5----------------------------|
|---0----------------------------3----------------------------|
|---------------5-3------2----0---------5-----3----2-------0--|


    \1____/    \1.5____/    /1\     /1\     /1\    /1\       /1\
                                            |--3---|    |-----3-----|
    S    +S   +S      +S    E       E       E   E  E    E    E      E
|------------------------------------------------------------------------|
|------------------------------------------------------------------------|
|-/12---(12)-(12)----(12)-/12-----/14-----/12s==9s14s==12s==15s====12----|
|------------------------------------------------------------------------|
|------------------------------------------------------------------------|
|------------------------------------------------------------------------|
|
|                           PM----------|               PM------------|
|   Q                       S   S   S   S   Q           S S      S    S
|------------------------------------------------------------------------|
|------------------------------------------------------------------------|
|------------------------------------------------------------------------|
|------------------------------------------------------------------------|
|---4---------------------------------------3----------------------------|
|---2-----------------------5---3---2---0---1-----------5-3------2----0--|


    \1____/    \1.5____/   /1\            /1\     /1\
    S    +S   +S      +S   Q         Q    E       E
|-------------------------------------------------------|
|-/15---(15)-(15)----(15)-15\-----------/17-----/19-----|
|-------------------------------------------------------|
|-------------------------------------------------------|
|-------------------------------------------------------|
|-------------------------------------------------------|
|
|                          PM------|      PM----------|
|   Q                      S   S S S Q    S   S   S   S
|-------------------------------------------------------|
|-------------------------------------------------------|
|-------------------------------------------------------|
|---2--------------------------------5------------------|
|---0--------------------------------3------------------|
|--------------------------5---3-2-0------5---3---2---0-|


    /0.5\         /0.5\    \0.5/  \0.5/  \0.5/    \0.5/
    E     E E     E        E      E      E        E
|-/15-----------/15-------12s====15s====18s======22\------|
|---------------------------------------------------------|
|---------------------------------------------------------|
|---------------------------------------------------------|
|---------------------------------------------------------|
|---------------------------------------------------------|
|
|           PM----------|                PM-------------|
|   Q       S S   S     S  Q             S     S  S     S
|---------------------------------------------------------|
|---------------------------------------------------------|
|---------------------------------------------------------|
|---------------------------------------------------------|
|---4----------------------3------------------------------|
|---2-------5-3---2-----0--1-------------5-----3--2-----0-|


                   |--3--|
  H          Q  E  S  S  S    Q   Q  H
|-----------------10s11s12s|=13-----------||
|--------------------------|--------------||
|--------------------------|--------------||
|--------------------------|--------------||
|--------------------------|--------------||
|--------------------------|--------------||
|
|    PM----|
| Q  S S S S Q  E  E          E E Q  H
|--------------------------|--------------||
|--------------------------|--------------||
|--------------------------|--------------||
|-2----------5-------------|--------------||
|-0----------3--6--5-------|--2-----------||
|----5-3-2-0----4--3-------|--0-----------||


 Interlude
  Gtr I
  W                 +H.           E E   E E Q   H         W
|-----------------|-------------------|-----------------|-----------------|
|-----------------|-------------------|-----------------|-----------------|
|-----------------|-------------------|-----------------|-----------------|
|-2---------------|-(2)-----------6-5-|-2---------------|-----------------|
|-2---------------|-(2)-----------6-5-|-2---------------|-----------------|
|-0---------------|-(0)-----------4-3-|-0---------------|-----------------|
|
| Gtr II
|   PM|     PM|         PM------|         PM|     PM|       PM------|
| E E E E E E E E    E  E E E E E E E   E E E E E E E E   E E E E E E E E
|-----------------|-------------------|-----------------|-----------------|
|-----------------|-------------------|-----------------|-----------------|
|-----------------|-------------------|-----------------|-----------------|
|-----------------|-------------------|-----------------|-----------------|
|-2-----5-4-----4-|--3------------6-5-|-2-----5-4-----4-|-3-----------6-5-|
|-0-0-0-5-4-0-0-4-|--3--0-0-0-0-0-4-3-|-0-0-0-5-4-0-0-4-|-3-0-0-0-0-0-4-3-|


  Gtrs I, II
    PM|     PM|       PM------|         PM|     PM|       PM------|
  E E E E E E E E   E E E E E E E E   E E E E E E E E   E E E E E E E E
|-----------------|-----------------|-----------------|-----------------||
|-----------------|-----------------|-----------------|-----------------||
|-----------------|-----------------|-----------------|-----------------||
|-----------------|-----------------|-----------------|-----------------||
|-2-----5-4-----4-|-3-----------6-5-|-2-----5-4-----4-|-3-----------6-5-||
|-0-0-0-5-4-0-0-4-|-3-0-0-0-0-0-4-3-|-0-0-0-5-4-0-0-4-|-3-0-0-0-0-0-4-3-||


 Bridge
    PM--------|       PM|     PM        PM--------|       PM|     PM
  E E E E E E E E   E E E E E E E E   E E E E E E E E   E E E E E E E E
|-----------------|-----------------|-----------------|-----------------|
|-----------------|-----------------|-----------------|-----------------|
|-----------------|-----------------|-----------------|-----------------|
|-----------------|-----------------|-----------------|-----------------|
|-2-------------5-|-4-----4-3---6-5-|-2-------------5-|-4-----4-3---6-5-|
|-0-0-0-0-0-0-0-3-|-2-0-0-2-1-0-4-3-|-0-0-0-0-0-0-0-3-|-2-0-0-2-1-0-4-3-|


    PM--------|       PM|     PM        PM--------|       PM|     PM
  E E E E E E E E   E E E E E E E E   E E E E E E E E   E E E E E E E E
|-----------------|-----------------|-----------------|-----------------|
|-----------------|-----------------|-----------------|-----------------|
|-----------------|-----------------|-----------------|-----------------|
|-----------------|-----------------|-----------------|-----------------|
|-2-------------5-|-4-----4-3---6-5-|-2-------------5-|-4-----4-3---2-4-|
|-0-0-0-0-0-0-0-3-|-2-0-0-2-1-0-4-3-|-0-0-0-0-0-0-0-3-|-2-0-0-2-1-0-0-0-|


    PM|   PM|   PM--|   PM|   PM        PM|   PM|   PM--|   PM|   PM
  E E E E E E E E   E E E E E E E E   E E E E E E E E   E E E E E E E E
|-----------------|-----------------|-----------------|-----------------|
|-----------------|-----------------|-----------------|-----------------|
|-----------------|-----------------|-----------------|-----------------|
|-------3---------|---5-----4-------|-------3---------|---5-----4-------|
|-5-----------4---|-------------2-4-|-5-----------4---|-------------2-4-|
|-0-0-0---0-0---0-|-0---0-0---0-0-0-|-0-0-0---0-0---0-|-0---0-0---0-0-0-|


    PM|   PM|   PM--|   PM|   PM        PM|   PM|   PM
  E E E E E E E E   E E E E E E E E   E E E E E E E E
|-----------------|-----------------|-----------------|
|-----------------|-----------------|-----------------|
|-----------------|-----------------|-----------------|
|-------3---------|---5-----4-------|-------3---------|
|-5-----------4---|-------------2-4-|-5-----------4---|
|-0-0-0---0-0---0-|-0---0-0---0-0-0-|-0-0-0---0-0---0-|


 Guitar Solo II
  Gtr III
                         ~~~~
  E Q.      H            H           a  +E    +E     +E  +E
|---------------------||----------------------------------------|
|---------------------||----------------------------------------|
|---7b9-----7b9-------||-7b9========(7)r(7)b9r(7)b9==(7)r(7)b9==|
|---------------------||----------------------------------------|
|---------------------||----------------------------------------|
|---------------------||----------------------------------------|
|
| Gtrs I, II
| PM    PM|     PM            PM---------------------|
| E E   E E E   E E E    E    E E E      E     E      E   E
|---------------------||----------------------------------------|
|---------------------||----------------------------------------|
|---------------------||----------------------------------------|
|---5-------4---------||----------------------------------------|
|-----------------6-5-||-2--------------------------------5-----|
|-0-----0-0-----0-4-3-||-0----0-0-0------0-----0------0---3-----|


                      ~~~~~~~~~~~~~~~~~~~~
  +E  +E     +E  +E  +H            +H.              +Q
|--------------------------------|------------------------|
|--------------------------------|------------------------|
|-(7)r(7)b9==(7)r(7)-(7)b9r======|=(7)b9============(7)r==|
|--------------------------------|------------------------|
|--------------------------------|------------------------|
|--------------------------------|------------------------|
|
|      PM----|             PM             PM--------|
|  E   E      E   E   E    E E E    E     E E E E E  E  E
|--------------------------------|------------------------|
|--------------------------------|------------------------|
|--------------------------------|------------------------|
|--------------------------------|------------------------|
|--4--------------4---3------6-5-|--2-------------------5-|
|--2---0------0---2---1----0-4-3-|--0-----0-0-0-0-0--0--3-|


  +Q      +Q      Q    +Q
|-----------------------------|
|-----------------------------|
|-(7)b9r==(7)---/16---(16)\---|
|-----------------------------|
|-----------------------------|
|-----------------------------|
|
|       PM|         PM
|  E    E  E  E   E E   E   E
|-----------------------------|
|-----------------------------|
|-----------------------------|
|-----------------------------|
|--4----------4---3-----6---5-|
|--2----0--0--2---1-0---4---3-|


  T     T     T     T     T     T      T      T
  |----6----| |----6----| |----6----|  |----6-----|
  S S S S S S S S S S S S S S S S S S  S S S  S S S
|---------------------------------------------------|
|---------------------------------------------------|
|-7p4p2-7p4p2-8p5p3-8p5p3-9p6p4-9p6p4-10p7p5-10p7p5-|
|---------------------------------------------------|
|---------------------------------------------------|
|---------------------------------------------------|
|
|       PM----------------------------|
| E     E     E     E     E     E      E      E
|---------------------------------------------------|
|---------------------------------------------------|
|---------------------------------------------------|
|---------------------------------------------------|
|-2-------------------------------------------5-----|
|-0-----0-----0-----0-----0-----0------0------3-----|


   T      T      T      T      T       T       T       T
   |----6-----|  |----6-----|  |-----6------|  |-----6------|
   S S S  S S S  S S S  S S S  S  S S  S  S S  S  S S  S  S S
|-------------------------------------------------------------|
|-------------------------------------------------------------|
|-11p8p6-11p8p6-12p9p7-12p9p7-13p10p8-13p10p8-14p11p9-14p11p9-|
|-------------------------------------------------------------|
|-------------------------------------------------------------|
|-------------------------------------------------------------|
|
|         PM----|                      PM
|  E      E      E      E      E       E       E       E
|-------------------------------------------------------------|
|-------------------------------------------------------------|
|-------------------------------------------------------------|
|-------------------------------------------------------------|
|--4--------------------4------3---------------6-------5------|
|--2------0------0------2------1-------0-------4-------3------|


   T        T        T        T        T        T        T        T
   |------6-------|  |------6-------|  |------6-------|  |------6-------|
   S  S  S  S  S  S  S  S  S  S  S  S  S  S  S  S  S  S  S  S  S  S  S  S
|-------------------------------------------------------------------------|
|-------------------------------------------------------------------------|
|-15p12p10-15p12p10-16p13p11-16p13p11-17p14p12-17p14p12-18p15p13-18p15p13-|
|-------------------------------------------------------------------------|
|-------------------------------------------------------------------------|
|-------------------------------------------------------------------------|
|
|           PM------------------------------------------|
|  E        E        E        E        E        E        E        E
|-------------------------------------------------------------------------|
|-------------------------------------------------------------------------|
|-------------------------------------------------------------------------|
|-------------------------------------------------------------------------|
|--2--------------------------------------------------------------5-------|
|--0--------0--------0--------0--------0--------0--------0--------3-------|


   T        T        T        T        T        T        T        T
   |------6-------|  |------6-------|  |------6-------|  |------6-------|
   S  S  S  S  S  S  S  S  S  S  S  S  S  S  S  S  S  S  S  S  S  S  S  S
|-------------------------------------------------------------------------|
|-------------------------------------------------------------------------|
|-19p16p14-19p16p14-20p17p15-20p17p15-21p18p16-21p18p16-22p19p17-22p19p17-|
|-------------------------------------------------------------------------|
|-------------------------------------------------------------------------|
|-------------------------------------------------------------------------|
|
|           PM------|                           PM
|  E        E        E        E        E        E        E        E
|-------------------------------------------------------------------------|
|-------------------------------------------------------------------------|
|-------------------------------------------------------------------------|
|-------------------------------------------------------------------------|
|--4--------------------------4--------3-----------------6--------5-------|
|--2--------0--------0--------2--------1--------0--------4--------3-------|


               ~~~~~
   H           H             H           Q        +Q
|-------------------------|-------------------------------|
|-22----------22----------|-22----------22-------(22)\----|
|-21b23-------21b23-------|-21b23-------21b23====(21)r\---|
|-------------------------|-------------------------------|
|-------------------------|-------------------------------|
|-------------------------|-------------------------------|
|
|       PM|         PM|           PM-----------|
|  E    E E E  E    E E E    E    E E E  E     E   E    E
|-------------------------|-------------------------------|
|-------------------------|-------------------------------|
|-------------------------|-------------------------------|
|-------------------------|-------------------------------|
|--2--------5--4--------4-|--3---------------------6----5-|
|--0----0-0-5--4----0-0-4-|--3----0-0-0--0-----0---4----3-|


  T                     T                         T
  Q.     T  S. E..    T Q      E  T  S. E..    T  Q.     T S.
|---------------------------|---------------------------------|
|---------------------------|---------------------------------|
|---------------------------|--------------------10s====19p2/-|
|-----------------------9s==|=14s17p12s13s====19--------------|
|-7s====15p10s11s====17-----|---------------------------------|
|---------------------------|---------------------------------|
|
|   PM|            PM---|         PM----------------|
| E E E  E     E   E    E E    E  E     E   E     E E E  E
|---------------------------|---------------------------------|
|---------------------------|---------------------------------|
|---------------------------|---------------------------------|
|---------------------------|---------------------------------|
|-2------5-----4----------4-|--3----------------------6--5----|
|-0-0-0--5-----4---0----0-4-|--3--0-----0---0-----0-0-4--3----|


   H           H          H           Q.      S  S
|----------------------|---------------------------|
|-15b16-------15-------|-17b18-------17------------|
|-15b16-------15-------|-17b18-------17------17-16-|
|----------------------|---------------------------|
|----------------------|---------------------------|
|----------------------|---------------------------|
|
|       PM|      PM|           PM--------|
|  E    E E E  E E E E    E    E E E  E  E E  E
|----------------------|---------------------------|
|----------------------|---------------------------|
|----------------------|---------------------------|
|----------------------|---------------------------|
|--2--------5--4-----4-|--3----------------6--5----|
|--0----0-0-5--4-0-0-4-|--3----0-0-0--0--0-4--3----|


   ~~~~                   PM-----|
                          |---3---|  |---3---|  |---3---|  |---3---|
   H..              E     E  E    E  E  E    E  E  E    E  E  E    E
|----------------------|----------------------------------13-16---17-||
|----------------------|-----------------------13-15---17------------||
|-16---------------16\-|------------13-14---16-----------------------||
|----------------------|-12-14---15----------------------------------||
|----------------------|---------------------------------------------||
|----------------------|---------------------------------------------||
|
|      PM|     PM|             PM--------------------|
|  E   E E E E E E  E     E    E     E    E     E    E     E    E
|----------------------|---------------------------------------------||
|----------------------|---------------------------------------------||
|----------------------|---------------------------------------------||
|----------------------|---------------------------------------------||
|--2-------5-4------4--|--3--------------------------------2----4----||
|--0---0-0-5-4-0-0--4--|--3----0-----0----0-----0----0-----0----0----||


 Interlude
               ~~~~~~~~~~~~~~~~~~~~~~~~~~~~~~~~~~~
   H           H              +W
|-17b18-------17b19========|=(17)r---------------|
|--------------------------|---------------------|
|--------------------------|---------------------|
|--------------------------|---------------------|
|--------------------------|---------------------|
|--------------------------|---------------------|
|
|       PM|    PM----|   PM--|       PM|   PM
|  E    E E E  E     E E E     E   E E E E E E E
|--------------------------|---------------------|
|--------------------------|---------------------|
|--------------------------|---------------------|
|-----------3--------------|-------5-----4-------|
|--5-------------------4---|-----------------2-4-|
|--0----0-0----0-----0---0-|---0-----0-0---0-0-0-|


 ~~~~~~~~~~~~~~~~~~~~~~~~~~~~~
   W                      +W
|-17b19================|=(17)---------------|
|----------------------|--------------------|
|----------------------|--------------------|
|----------------------|--------------------|
|----------------------|--------------------|
|----------------------|--------------------|
|
|        PM|   PM|   PM--|      PM|   PM
|  E     E E E E E E E     E  E E E E E E E
|----------------------|--------------------|
|----------------------|--------------------|
|----------------------|--------------------|
|------------3---------|------5-----4-------|
|--5---------------4---|----------------2-4-|
|--0-----0-0---0-0---0-|---0----0-0---0-0-0-|


    ~~~~~~~~~~~~~~~~~~~~~~~~~~~~~~~~~~~~~~~
   +W                   +W
|-(17)---------------|-(17)---------------|
|--------------------|--------------------|
|--------------------|--------------------|
|--------------------|--------------------|
|--------------------|--------------------|
|--------------------|--------------------|
|
|      PM|   PM|   PM--|      PM|   PM
|   E  E E E E E E E     E  E E E E E E E
|--------------------|--------------------|
|--------------------|--------------------|
|--------------------|--------------------|
|----------3---------|------5-----4-------|
|---5------------4---|----------------2-4-|
|---0--0-0---0-0---0-|---0----0-0---0-0-0-|


 ~~~~~~~~~~~~~~~~~~~~~~~~~~~~
   +W                   +H          Q        +Q
|-(17)---------------|-(17)r-------22b23====(22)r\---||
|--------------------|-------------------------------||
|--------------------|-------------------------------||
|--------------------|-------------------------------||
|--------------------|-------------------------------||
|--------------------|-------------------------------||
|
|      PM|   PM|   PM--|       PM|        PM-------|
|   E  E E E E E E E     E   E E E  E     E   E    E
|--------------------|-------------------------------||
|--------------------|-------------------------------||
|--------------------|-------------------------------||
|----------3---------|-------5------4----------------||
|---5------------4---|-------------------------------||
|---0--0-0---0-0---0-|---0-----0-0--------0---0----2-||


 Guitar Solo III
   H                  +H
|-24b25==============(24)r-----------|
|------------------------------------|
|------------------------------------|
|------------------------------------|
|------------------------------------|
|------------------------------------|
|
|  PM---------------------------------
|  E     S S S S S S   S   S S S E E
|------------------------------------|
|------------------------------------|
|------------------------------------|
|------------------------------------|
|------------------------------------|
|--3-----2-2-2-2-2-2---2---2-2-2-0-2-|


   |------------------3------------------|                            |-3--|
   Q        a       +Q          a       +Q        a       +Q          Q    E
|-24b26r==(24)b26==(24)r======(24)b26==(24)r====(24)b26==(24)r\-----------17--|
|-----------------------------------------------------------------------------|
|-----------------------------------------------------------------------------|
|-----------------------------------------------------------------------------|
|-----------------------------------------------------------------------------|
|-----------------------------------------------------------------------------|
|
|-----------------------------------------------------------------------|
|  E    S               S S S               S S            S    S S S E E
|-----------------------------------------------------------------------------|
|-----------------------------------------------------------------------------|
|-----------------------------------------------------------------------------|
|-----------------------------------------------------------------------------|
|-----------------------------------------------------------------------------|
|--5----2---------------2-2-2---------------2-2------------2----2-2-2-0-2-----|


   |---3---|    |----3----|    |----3----|    |----3----|
   E  E    E    E    E    E    E    E    E    E    E    E
|-19-21---19---17------------------17---19---21---19---17---|
|-------------------20---19---17----------------------------|
|-----------------------------------------------------------|
|-----------------------------------------------------------|
|-----------------------------------------------------------|
|-----------------------------------------------------------|
|
|  PM-----------------------------------------------------|
|  E    S    S  S S    S    S  S S    S    S  S S    S    S
|-----------------------------------------------------------|
|-----------------------------------------------------------|
|-----------------------------------------------------------|
|-----------------------------------------------------------|
|-----------------------------------------------------------|
|--3----2----2--2-2----2----2--2-2----2----2--0-2----2----2-|


   |--3--|  |----3----|    |--3--|
   E  E  E  E    E    E    E  E  E  E  E
|----------17---19---21---19-17----------|
|-20-19-17----------------------20-19-17-|
|----------------------------------------|
|----------------------------------------|
|----------------------------------------|
|----------------------------------------|
|
|           PM----------|           PM|
|  Q        S S    S    S  Q        E  E
|----------------------------------------|
|----------------------------------------|
|----------------------------------------|
|--------------------------3-------------|
|--5-----------------------1-------------|
|--3--------0-2----2----2-----------0--2-|


  \7
                                ~~~                    PM
  W                             H.                     Q
|----------------------------|-----------------------------|
|----------------------------|-<5>-------------------------|
|-0--------------------------|-----------------------------|
|----------------------------|-----------------------------|
|----------------------------|-----------------------------|
|----------------------------|-------------------------x---|
|
| PM-----------------------------------------------------|
| E  S S S S S S S S S S E E    E  S S S S S S S S S S E E
|----------------------------|-----------------------------|
|----------------------------|-----------------------------|
|----------------------------|-----------------------------|
|----------------------------|-----------------------------|
|----------------------------|-----------------------------|
|-3--2-2-2-2-2-2-2-2-2-2-0-2-|--5--2-2-2-2-2-2-2-2-2-2-0-2-|


                                                                ~~~~~~~~
  |--3--|   |---3---|   |---3---|   |---3---|     |-3-| |---3---|
  E E   E   E   E   E   E   E   E   E   E   E     E E E E   E   E   +H
|---5---7---9---7---5---------------------------|-----------------------------|
|-----------------------8---7---5---------------|-----------------------------|
|-----------------------------------7---5---4---|-7-5-4-----------------------|
|-----------------------------------------------|-------7---5---4---(4)-------|
|-----------------------------------------------|-----------------------------|
|-----------------------------------------------|-----------------------------|
|
| PM------------------------------------------|         PM--------|      PM|
| E   S   S S S   S   S S S   S   S S S   S   S   Q     S S   S   S  Q   E E
|-----------------------------------------------|-----------------------------|
|-----------------------------------------------|-----------------------------|
|-----------------------------------------------|-----------------------------|
|-----------------------------------------------|--------------------3--------|
|-----------------------------------------------|-5------------------1--------|
|-3---2---2-2-2---2---2-2-2---2---2-0-2---2---2-|-3-----0-2---2---2------0-2--|


  \7                                                         \1/
                        ~~~~~~~~~~~~~~~~~
  H              +E     Q.          +H.                      Q
|--------------------------------|---------------------------------|
|--------------------------------|---------------------------------|
|----------------------[5]-------|-([5])---------------------0-----|
|--------------------------------|---------------------------------|
|--------------------------------|---------------------------------|
|-0--------------(0)-------------|---------------------------------|
|
| PM-------------------------------------------------------------|
| E  S S S S S S  S  S  S  S E E     E   S S S S S S S S S S E   E
|--------------------------------|---------------------------------|
|--------------------------------|---------------------------------|
|--------------------------------|---------------------------------|
|--------------------------------|---------------------------------|
|--------------------------------|---------------------------------|
|-3--2-2-2-2-2-2--2--2--2--2-0-2-|---5---2-2-2-2-2-2-2-2-2-2-0---2-|


  \1__/   \1____/   \1____/    \1_____/
  E   E   E     E   E     E    E      E
|-----------------------------------------|
|-----------------------------------------|
|-5s==4s==7s====6s==9s====8s==11s====10s==|
|-----------------------------------------|
|-----------------------------------------|
|-----------------------------------------|
|
| PM------------------------------------|
| E   S S S   S S S S   S S S  S   S  S S
|-----------------------------------------|
|-----------------------------------------|
|-----------------------------------------|
|-----------------------------------------|
|-----------------------------------------|
|-3---2-2-2---2-2-2-2---2-2-2--0---2--2-2-|


   \1___/  \1_____/    \1___/  \1___/
   E    E  E      E    E    E  E    E
|--------------------------------------|
|--------------------------------------|
|-13s==12s15s====14s==16s==15s17s==16\-|
|--------------------------------------|
|--------------------------------------|
|--------------------------------------|
|
|          PM-------|          PM--|
|  Q       S   S  S S  Q       E    E
|--------------------------------------|
|--------------------------------------|
|--------------------------------------|
|----------------------3---------------|
|--5-------------------1---------------|
|--3-------0---2--2-2----------0----2--|


   T     T     T     T     T     T     T     T
   S  S  S  S  S  S  S  S  S  S  S  S  S  S  S  S
|-------------------------------------------------|
|-------------------------------------------------|
|-------------------------------------------------|
|-------------------------------------------------|
|-------------------------19p13-19p13-19p13-19p13-|
|-18p12-18p12-18p12-18p12-------------------------|
|
|  PM----------------------------------------------
|  E     S  S  S  S  S  S  S  S  S  S  E     E
|-------------------------------------------------|
|-------------------------------------------------|
|-------------------------------------------------|
|-------------------------------------------------|
|-------------------------------------------------|
|--3-----2--2--2--2--2--2--2--2--2--2--0-----2----|


   T     T     T     T     T     T     T     T
   S  S  S  S  S  S  S  S  S  S  S  S  S  S  S  S
|--------------------------------------------------|
|--------------------------------------------------|
|-------------------------21p15-21p15-21p15-21p15--|
|-20p14-20p14-20p14-20p14--------------------------|
|--------------------------------------------------|
|--------------------------------------------------|
|
|-------------------------------------------|
|  E     S  S  S  S  S  S  S  S  S  S  E     E
|--------------------------------------------------|
|--------------------------------------------------|
|--------------------------------------------------|
|--------------------------------------------------|
|--------------------------------------------------|
|--5-----2--2--2--2--2--2--2--2--2--2--0-----2-----|


   T     T     T     T     T          T          T        T
                           |--------6---------|  |------6-------|
   S  S  S  S  S  S  S  S  S  S    S  S  S    S  S  S  S  S  S  S
|-------------------------23p17p==14-23p17p==14-22p16p13-22p13h16-|
|-22p16-22p16-22p16-22p16-----------------------------------------|
|-----------------------------------------------------------------|
|-----------------------------------------------------------------|
|-----------------------------------------------------------------|
|-----------------------------------------------------------------|
|
|  PM----------------------------------------------------|
|  E     S  S  S  S  S  S  S    S     S    S     E        E
|-----------------------------------------------------------------|
|-----------------------------------------------------------------|
|-----------------------------------------------------------------|
|-----------------------------------------------------------------|
|-----------------------------------------------------------------|
|--3-----2--2--2--2--2--2--2----2-----2----2-----0--------2-------|


   T        T        T          T          T        T        T
   |------6-------|  |--------6---------|  |------6-------|  |-3--|
   S  S  S  S  S  S  S  S    S  S  S    S  S  S  S  S  S  S  S  S S  E
|-21p15p12-21p15p12-20p14p==11-20p14p==11-19p13p10-19p13p10-18p12p9h12s|
|----------------------------------------------------------------------|
|----------------------------------------------------------------------|
|----------------------------------------------------------------------|
|----------------------------------------------------------------------|
|----------------------------------------------------------------------|
|
|                    PM--------------|
|  Q                 S    S     S    S     Q                 E       E
|----------------------------------------------------------------------|
|----------------------------------------------------------------------|
|----------------------------------------------------------------------|
|------------------------------------------3---------------------------|
|--5---------------------------------------1-----------------2-------3-|
|--3-----------------0----2-----2----2-----------------------0-------1-|


   E E Q  H
|-24-----------*|
|--------------*|
|--------------*|
|--------------*|
|--------------*|
|--------------*|
|
|  E E Q  H
|--------------*|
|--------------*|
|--------------*|
|--------------*|
|--4-----------*|
|--2-----------*|



Duration Legend
---------------
W - whole; H - half; Q - quarter; E - 8th; S - 16th; T - 32nd; X - 64th; a - acciaccatura
+ - note tied to previous; . - note dotted; .. - note double dotted
Uncapitalized letters represent notes that are staccato (1/2 duration)
Irregular groupings are notated above the duration line
Duration letters will always appear directly above the note/fret number it represents the
duration for.  Duration letters with no fret number below them represent rests.  Multi-
bar rests are notated in the form Wxn, where n is the number of bars to rest for.  Low
melody durations appear below the staff

Tablature Legend
----------------
 h   - hammer-on
 p   - pull-off
 b   - bend
 pb  - pre-bend
 r   - bend release (if no number after the r, then release immediately)
 /\  - slide into or out of (from/to "nowhere")
 s   - legato slide
 S   - shift slide
 - natural harmonic
[n]  - artificial harmonic
n(n) - tapped harmonic
 ~   - vibrato
 tr  - trill
 T   - tap
 TP  - trem. picking
 PM  - palm muting
\n/  - tremolo bar dip; n = amount to dip
 \n  - tremolo bar down
 n/  - tremolo bar up
/n\  - tremolo bar inverted dip
 =   - hold bend; also acts as connecting device for hammers/pulls
 <> - volume swell (louder/softer)
 x   - on rhythm slash represents muted slash
 o   - on rhythm slash represents single note slash

Misc Legend
-----------
 |  - bar
||  - double bar
||o - repeat start
o|| - repeat end
*|  - double bar (ending)
 :  - bar (freetime)
 $  - Segno
 &  - Coda
Tempo markers -  = BPM(8/16=s8/s16), where s8 = swing 8ths, s16 = swing 16ths

Tap to rate this tab
 
# A B C D E F G H I J K L M N O P Q R S T U V W X Y Z