Guitaretab - guitar tabs
Song name
# A B C D E F G H I J K L M N O P Q R S T U V W X Y Z

Slayer - Die By The Sword tab

                           
Intro/Verse riff 1
|-----------------|-----------------|-----------------|-----------------|
|-----------------|-----------------|-----------------|-----------------|
|-----------------|-----------------|-----------------|-----------------|
|-------------4/5-|-----------------|-------------4/5-|-----------------|
|-------------4/5-|-------------8---|-------------4/5-|-----8------10---|
|-0-000-0-000-----|-0-000-0-000-6---|-0-000-0-000-----|-0-0-6-----0-8---|
    ...   ...         ...   ...         ...   ...       . .       .
Verse riff 2
|------------------------------------------------------------|
|------------------------------------------------------------|
|------------------------------------------------------------|
|----------------8-----8-----8--7-----7-----7------10-----9--|
|-7-----7-----7--6-666-6-666-6--5-555-5-555-5--0-0--8--0--7--|
|-5-555-5-555-5----------------------------------------------|
    ...   ...      ...   ...      ...   ...    . .     .
Chorus
|-----------------|-----------------|-----------------|-----------------|
|-----------------|-----------------|-----------------|-----------------|
|-----------------|-----------------|-----------------|-----------------|
|-----------------|-----------------|-----------------|-7---6-----------|
|-3-2-------------|-3-2-------------|-3-2-------------|-5---4---8---7---|
|-----3-2-5-3-2-0-|-----3-2-5-3-2-0-|-----3-2-5-3-2-0-|---------6---5---|
  . . . . . . . .   . . . . . . . .   . . . . . . . .
Bridge
|-----------------| |-----------------|
|-----------------| |-----------------|
|-----------------| |-----------------|
|-5---4-----------| |-----------------|
|-3---2---5---4---| |-2-2-2-2-2-2-2-2-|
|---------3---2---| |-0-0-0-0-0-0-0-0-|
                                                          Guitar 1     Guitar 2
|---------------------------------|---------------------||------------||--15b-15\-|
|---------------------------------|---------------------||------------||--18b-18\-|
|---------------------------------|---------------------||------------||----------|
|-------------4------------4-3----|---------------------||-----5--10--||----------|
|-2-----5-----2------------2-1----|-2-----5-----3-------||-----3---8--||----------|
|-0-0-0-3-0-0----------0-0--------|-0-0-0-3-0-0-1-------||-0-0---0----||----------|
    . .   . .          . .            . .   . .            . .   .
"Solo"
   BAR        BAR       BAR
|-15\/\/\/\\--------------------------------------|
|-18\/\/\/\\-----------23//\/\/\\/\\/\\/\\//\//\--|
|-------------------------------------------------|
|-------------------------------------------------|
|-------------------------------------------------|
|-------------0\\\\-------------------------------|

  BAR/\/\/\/\/\/\/\/\/\/\/\/\/\/\/\/\/\/\/\/\/\/\/\  N.H. BAR
|----------------------------------------------------------------------|
|----------------------------------------------------------------------|
|-0h9p7p6p0h9p7p6p0h9p7p6p0h9p7p6p0h9p7p6p0h9p7p6p0--5///\/\/\/\//\\\--|
|----------------------------------------------------------------------|
|----------------------------------------------------------------------|
|----------------------------------------------------------------------|

  BAR/\/\/\/\/\/\/\/\/\/\/\  BAR    N.H. BAR
|---------------------------------------------|
|---------------------------------------------|
|---------------------------------------------|
|---------------------------------------------|
|-0h4p2p0h4p2p0h4p2p0h4p2p0-0\\\\---7\/\/\\\\-|
|---------------------------------------------|

    BAR         BAR       BAR           BAR     N.H. BAR
|-------------21//\/\/\-22//\/\/\\--|------------------------|
|-21///\/\/\------------------------|-21//\/\\--5\\\\\\\\----|
|-----------------------------------|------------------------|
|-----------------------------------|------------------------|
|-----------------------------------|------------------------|
|-----------------------------------|------------------------|

|-------------------------------------|-------------------------------------|
|-------------------------------------|-------------------------------------|
|-------------------------------------|-------------------------------------|
|----8--7-----------------------------|----8--7-----------------------------|
|-------------8--7-----8-10-----8--7--|-------------8--7-----8-10-----------|
|-0--------0--------0--------0--------|-0--------0--------0--------0--8--7--|
  .        .        .        .          .        .        .        .
Guitar 2 (last time)
|-------------------------------------|-------------------------------------|
|---11-10-----------------------------|---11-10-----------------------------|
|------------10--9----10-12----10--9--|------------10--9----10-12-----------|
|-------------------------------------|------------------------------10--9--|
|-------------------------------------|-------------------------------------|
|-0--------0--------0--------0--------|-0--------0--------0--------0--------|
  .        .        .        .          .        .        .        .
Solo 1
|-------------------------------|--------------------------------------------|
|-------------------------------|--------------------------------------------|
|-------------------------------|-----------------------5---5-7-5-7-7fb^^^r--|
|---------------5---------------|-----------5---5-7-5-7---7------------------|
|-7b^^--5-7b^^----7b^^--5-7b^^--|---5-7-5-7---7------------------------------|
|-------------------------------|-7------------------------------------------|
[ Tab from: http://www.guitaretab.com/s/slayer/43674.html ]
|---------------------------------------------------------------------------------|
|-t20-12h15-t20-12h15-t20-12h15-t20-12h15-t20-12h15-t20-12h15-t20-12h15-t20-12h15-|
|---------------------------------------------------------------------------------|
|---------------------------------------------------------------------------------|
|---------------------------------------------------------------------------------|
|---------------------------------------------------------------------------------|
   
|---------------------------------------------------------------------------------|
|-t20-12h15-t20-12h15-t20-12h15-t20-12h15-t20-12h15-t20-12h15-t20-12h15-t20-12h15-|
|---------------------------------------------------------------------------------|
|---------------------------------------------------------------------------------|
|---------------------------------------------------------------------------------|
|---------------------------------------------------------------------------------|
   
|-t19-15h18-t19-15h18-t19-15h18-t19-15h18-t19-15h18-t19-15h18-t19-15h18-t19-15h18-|
|---------------------------------------------------------------------------------|
|---------------------------------------------------------------------------------|
|---------------------------------------------------------------------------------|
|---------------------------------------------------------------------------------|
|---------------------------------------------------------------------------------|
  
|-t22-15h18-t22-15h18-t22-15h18-t22-15h18-t22-15h18-t22-15h18-t22-15h18-t22-15h18-|
|---------------------------------------------------------------------------------|
|---------------------------------------------------------------------------------|
|---------------------------------------------------------------------------------|
|---------------------------------------------------------------------------------|
|---------------------------------------------------------------------------------|
   
|-15fb^--15b^^--18-16-15--------15b^^--15-16-18-16-15-|
|-18fb^--18b^^-----------18-17--18b^^-----------------|
|-----------------------------------------------------|
|-----------------------------------------------------|
|-----------------------------------------------------|
|-----------------------------------------------------|

|-------------------------------------------------------|
|-18-17-15-18-17-15-------------------------------------|
|-------------------18-16-15-18-16-15-------------------|
|-------------------------------------17-15-14-12b\\\\--|
|-------------------------------------------------------|
|-------------------------------------------------------|

|------------------------------------------------------------------------|
|---------------------------------------------------------------12-14-15-|
|---------------------------12-13-15-------------------12-13-15----------|
|------------------11-12-14-------------------11-12-14-------------------|
|---------10-11-13-------------------10-11-13----------------------------|
|-9-10-12----------------------------------------------------------------|

|----------------------------------------------|
|-17-12h15-19-12h15-17-12h15-19-12h15-17-12h15-|
|----------------------------------------------|
|----------------------------------------------|
|----------------------------------------------|
|----------------------------------------------|

|----------------------------------------------|
|-19-12h15-17-12h15-19-12h15-/17fb^--17b^^^----|
|----------------------------------------------|
|----------------------------------------------|
|----------------------------------------------|
|----------------------------------------------|

|-0-12-0-12-13-15-13-12-13-12----0-12-0-12-13-15-13-12-13-12----|
|-----------------------------15-----------------------------15-|
|---------------------------------------------------------------|
|---------------------------------------------------------------|
|---------------------------------------------------------------|
|---------------------------------------------------------------|

|-0-12-0-12-13-15-13-12--------------------------------------------|
|-----------------------15-14-12-15-14-12--------------------------|
|------------------------------------------15-13-12-15-13-12-------|
|------------------------------------------------------------14b^^-|
|------------------------------------------------------------------|
|------------------------------------------------------------------|

|--------------------------------------------------------------------|
|--------------------------------------------------------------------|
|-/15fb^-15b^--18fb^-18fb^--16fb^-16b^--------9-12-10-9-10-9---------|
|----------------------------------------9-12----------------12-9b^--|
|--------------------------------------------------------------------|
|--------------------------------------------------------------------|

|---------------------------------------------------------------------------------|
|-t19-12h15-t19-12h15-t19-12h15-t19-12h15-t19-12h15-t19-12h15-t19-12h15-t19-12h15-|
|---------------------------------------------------------------------------------|
|---------------------------------------------------------------------------------|
|---------------------------------------------------------------------------------|
|---------------------------------------------------------------------------------|
   
|---------------------------------------------------------------------------------|
|-t20-12h15-t20-12h15-t20-12h15-t20-12h15-t20-12h15-t20-12h15-t20-12h15-t20-12h15-|
|---------------------------------------------------------------------------------|
|---------------------------------------------------------------------------------|
|---------------------------------------------------------------------------------|
|---------------------------------------------------------------------------------|
   
|---------------------------------------------------------------------------------|
|-t19-12h14-t19-12h14-t19-12h14-t19-12h14-t19-12h14-t19-12h14-t19-12h14-t19-12h14-|
|---------------------------------------------------------------------------------|
|---------------------------------------------------------------------------------|
|---------------------------------------------------------------------------------|
|---------------------------------------------------------------------------------|
   
|--------------------|
|-/13-12-------------|
|--------12-11\\\----|
|--------------------|
|--------------------|
|--------------------|

|-2-3-5-3-2-------------------------------------------------|
|-----------5-3-2-5-3-2-------------------------------------|
|-----------------------5-3-2-3b^-3b^--5-3-2----------------|
|--------------------------------------------3-2-3b^-2h3b^--|
|-----------------------------------------------------------|
|-----------------------------------------------------------|

|--------------------------------------------------------|
|--------------------------------------------------------|
|---------------9-10-12-9-10-12-9/12fb^^^^^^^^^^r\\\\----|
|-8-9-11-8-9-11------------------------------------------|
|--------------------------------------------------------|
|--------------------------------------------------------|
Ending
|-----------------| 
|-----------------| 
|-----------------|
|-5---4-----------| 
|-3---2---5---4---| 
|---------3---2---| 

|-----------------|
|-----------------|
|-----------------|
|-7---6-----------|
|-5---4---8---7---|
|---------6---5---|

|-------------------|
|-------------------|
|-------------------|
|-5---4-------------|
|-3---2---5---4---2-|
|---------3---2---0-|





Intro          x2
Verse riff1    x2
Verse riff2    x2
Chorus         x2
Repeat above once more
Bridge 
"solo"
2nd part of Bridge
Main solo
verse riff 1 x2
Chorus       x2
Ending

ENJOY =D
Related for Die By The Sword tab
Advertisement will be closed in 10 seconds