Guitaretab - guitar tabs
Song name
# A B C D E F G H I J K L M N O P Q R S T U V W X Y Z

Slayer - Im Gonna Be Your God tab

Slayer
I hate you                                   Burn_79@hotmail.com
Tune down 1/2 step - (Eb Ab Db Gb Bb eb)

Intro / Chorus
|------------------------------------------------------------------|
|------------------------------------------------------------------|
|------------------------------------------------------------------|
|12-12-12----11-11-11-----9--9--9--9-----9--9----------------------|
|10-10-10-----9--9--9-----7--7--7--7-----7--7----------------------|
|-0--0--0--0--0--0--0--0--0--0--0--0-----0--0----------------------|

Verse
|------------------------------------------------------------------|
|------------------------------------------------------------------|
|------------------------------------------------------------------|
|-5--5--5--5--4--4--4--4--4--2--2--2--2--2--2--2--2----------------|
|-5--5--5--5--4--4--4--4--4--2--2--2--2--2--2--2--2----------------|
|-3--3--3--3--2--2--2--2--2--0--0--0--0--0--0--0--0----------------|
pm.................................................

Verse Fill
|---------------------------------------------------------------------|
|---------------------------------------------------------------------|
|---------------------------------------------------------------------|
|----------------------------------------------------------------2----|
|-12--\--9---7--\--4---4--5--5-5-5-5-5-5-5-5-5-5-5-5-5-5-5-5-5-5-2----|
|-10--\--7---5--\--2---2--3--3-3-3-3-3-3-3-3-3-3-3-3-3-3-3-3-3-3-0----|
pm                            ...................................

Solo                                                         dive(down 2)
|------------------------------------------------------------------|
|------------------------------------------------------------\-----|
|-----------------------7--9/12--9--12--14---12--14--12~~~--0\-----|
|-------------5--7-7/9---------------------------------------\-----|
|-----3--5/7-------------------------------------------------------|
|-12\--------------------------------------------------------------|
[ Tab from: http://www.guitaretab.com/s/slayer/43678.html ]
|----------------------12------------------------------------------|
|-15b17----15b17~~~-------15-13-15-13-12~~~-(12)-\-5--//--12-------|
|------------------------------------------------------------------|
|------------------------------------------------------------------|
|------------------------------------------------------------------|
|------------------------------------------------------------------|

|----------------12-14-14-15-14-12---------------------------------|
|-12-13-15-13-15-------------------15-13-12-13-15-12-13-15-13-12---|
|----------------------------------------------------------------14|
|------------------------------------------------------------------|
|------------------------------------------------------------------|
|------------------------------------------------------------------|

|------------------------------------------------------------------|
|-15---------------------------------------------------------------|
|-14b--/7~~--6~~--7-9-6-6-7--------0-4-4h5h7-4h5h7-5p4-------------|
|---------------------------9-9~~----------------------7-4-5-------|
|------------------------------------------------------------------|
|------------------------------------------------------------------|
pm                ..........
                                     trem bar (1/2)
|------------------------------------------------------------------|
|------------------------------------------------------------------|
|-4h5h7-5p4--------------------------------------------------------|
|-----------7-4-5--4-5--7-4-----------/----------------------------|
|-----------------------------4h5h7--5/----------------------------|
|-------------------------------------/----------------------------|

BREAK

other fill                                                dive
|------------------------------------------------------------------|
|------------------------------------------------------------------|
|------------------------------------------------------------------|
|-------------------------------------------------------2-\--------|
|10--\--7--7--5--\--2--2--3-3-3-3-3-3-3-3-3-3-3-3-3-3-3-2-\--------|
|-8--\--5--5--3--\--0--0--1-1-1-1-1-1-1-1-1-1-1-1-1-1-1-0-\--------|
pm                          ...........................
Related for Im Gonna Be Your God tab