Song name
# A B C D E F G H I J K L M N O P Q R S T U V W X Y Z

Slayer - Kill Again tab

Help us improve GuitareTab! Take a short survey!
#----------------------------------PLEASE NOTE---------------------------------#
#This file is the author's own work and represents their interpretation of the #
#song. You may only use this file for private study, scholarship, or research. #
#------------------------------------------------------------------------------#

KILL AGAIN
As recorded by Slayer
(From the 1984 Album HELL AWAITS)

Transcribed by David Harris, Zac Broaddus
	

Words by Kerry King Music by Jeff Hanneman/ Kerry King
Arranged by Slayer

Gtr I (Eb Ab Db Gb Bb Eb) - 'Hanneman'
Gtr II (Eb Ab Db Gb Bb Eb) - 'King'
Gtr III (Eb Ab Db Gb Bb Eb) - 'Hanneman (solo)'
Gtr IV (Eb Ab Db Gb Bb Eb) - 'King (solo)'
Gtr V (Eb Ab Db Gb Bb Eb) - 'King (rhythm under solo)'
Gtr VI (Eb Ab Db Gb Bb Eb) - 'Hanneman (rhythm under solo)'

   Intro
    Q=122
    E5    C5B5        B5C5B5    E5    C5B5        B5C5B5
   4/4
    Gtrs I, II
      PM|     PM----|       PM    PM|     PM----|       PM
    E S S E E S S S S S S S S   E S S E E S S S S S S S S
||----------------------------|-----------------------------||
||o---------------------------|----------------------------o||
||----------------------------|-----------------------------||
||--------5-4---------4-5-4---|-------5-4---------4-5-4-----||
||o-2-----3-2---------2-3-2---|-2-----3-2---------2-3-2----o||
||--0-0-0-----0-0-0-0-------0-|-0-0-0-----0-0-0-0-------0---||


    E5    C5    Bb5   G5F#F5    E5    C5    Bb5   G5F#F5
      PM|   PM|   PM|       PM    PM|   PM|   PM|       PM
    E S S E S S E S S S S S S   E S S E S S E S S S S S S
||----------------------------|----------------------------||
||o---------------------------|---------------------------o||
||----------------------------|----------------------------||
||--------5-----3-------------|-------5-----3--------------||
||o-2-----3-----1-----5-4-3---|-2-----3-----1-----5-4-3---o||
||--0-0-0---0-0---0-0-3-2-1-0-|-0-0-0---0-0---0-0-3-2-1-0--||


   Rhythm Change
    Q=196
    E5                                    F#F5E5
   2/2
    PM--|     PM--|       PM--|     PM--|
    |---6---| |---6---|   |---6---| |----6----|
    E E E E Q E E E E Q   E E E E Q E E E E E E
||----------------------|-----------------------|
||o---------------------|-----------------------|
||----------------------|-----------------------|
||----------------------|-----------------------|
||o-2-2-2-2---2-2-2-2---|-2-2-2-2---2-2-2-4-3-2-|
||--0-0-0-0---0-0-0-0---|-0-0-0-0---0-0-0-2-1-0-|


                                        F5
  PM--|     PM--|       PM--|     PM--|
  |---6---| |---6---|   |---6---| |--6--|
  E E E E Q E E E E Q   E E E E Q E E E Q.
|---------------------|----------------------||
|---------------------|---------------------o||
|---------------------|----------------------||
|---------------------|----------------------||
|-2-2-2-2---2-2-2-2---|-2-2-2-2---2-2-2-3---o||
|-0-0-0-0---0-0-0-0---|-0-0-0-0---0-0-0-1----||


    N.C.
   4/4
    S S S S S S S S S S S S S S S S   S S S S S S S S S S S S S S S S
||----------------------------------|-----------------------------------||
||o---------------------------------|----------------------------------o||
||----------------------------------|-----------------------------------||
||----------------------------------|-----------------------------------||
||o-4-4-4-4-5-5-5-5-4-4-4-4-7-7-7-7-|-4-4-4-4-5-5-5-5-4-4-4-4-4-4-4-4--o||
||----------------------------------|-----------------------------------||


  N.C.
  Gtr II
  S S S S S S S S S S S S S S S S   S S S S S S S S S S S S S S S S
|---------------------------------|---------------------------------|
|---------------------------------|---------------------------------|
|---------------------------------|---------------------------------|
|---------------------------------|---------------------------------|
|-4-4-4-4-5-5-5-5-4-4-4-4-7-7-7-7-|-4-4-4-4-5-5-5-5-4-4-4-4-4-4-4-4-|
|---------------------------------|---------------------------------|
|
| Gtr I
| S S S S S S S S S S S S S S S S   S S S S S S S S S S S S S S S S
|---------------------------------|---------------------------------|
|---------------------------------|---------------------------------|
|---------------------------------|---------------------------------|
|-4-4-4-4-5-5-5-5-4-4-4-4-7-7-7-7-|-4-4-4-4-5-5-5-5-4-4-4-4-4-4-4-4-|
|---------------------------------|---------------------------------|
|---------------------------------|---------------------------------|


  N.C.                              C5 B5 F#5F5
  S S S S S S S S S S S S S S S S   Q  Q  Q  Q
|---------------------------------|-------------|
|---------------------------------|-------------|
|---------------------------------|-------------|
|---------------------------------|-5--4--------|
|-4-4-4-4-5-5-5-5-4-4-4-4-7-7-7-7-|-3--2--4--3--|
|---------------------------------|-------2--1--|
|
| S S S S S S S S S S S S S S S S   Q  Q  Q  Q
|---------------------------------|-------------|
|---------------------------------|-------------|
|---------------------------------|-------------|
|-4-4-4-4-5-5-5-5-4-4-4-4-7-7-7-7-|-5--4--------|
|---------------------------------|-3--2--4--3--|
|---------------------------------|-------2--1--|


    N.C.
    Gtrs I, II
    S S S S S S S S S S S S S S S S   S S S S S S S S S S S S S S S S  3x
||----------------------------------|----------------------------------||
||o---------------------------------|---------------------------------o||
||----------------------------------|----------------------------------||
||----------------------------------|----------------------------------||
||o---------------------------------|---------------------------------o||
||--1-1-1-1-2-2-2-2-1-1-1-1-4-4-4-4-|-1-1-1-1-2-2-2-2-1-1-1-1-1-1-1-1--||


  N.C.
 12/8
  S S S S S S S S S S S S S S S S S S S S S S S S
|-------------------------------------------------||
|-------------------------------------------------||
|-------------------------------------------------||
|-------------------------------------------------||
|-------------------------------------------------||
|-1-1-1-1-2-2-2-2-1-1-1-1-4-4-4-4-1-1-1-1-2-2-2-2-||


    E5                                    F#F5E5
   2/2
    PM--|     PM--|       PM--|     PM--|
    |---6---| |---6---|   |---6---| |----6----|
    E E E E Q E E E E Q   E E E E Q E E E E E E
||----------------------|-----------------------|
||o---------------------|-----------------------|
||----------------------|-----------------------|
||----------------------|-----------------------|
||o-2-2-2-2---2-2-2-2---|-2-2-2-2---2-2-2-4-3-2-|
||--0-0-0-0---0-0-0-0---|-0-0-0-0---0-0-0-2-1-0-|


                                        F5
  PM--|     PM--|       PM--|     PM--|
  |---6---| |---6---|   |---6---| |--6--|
  E E E E Q E E E E Q   E E E E Q E E E Q.
|---------------------|----------------------||
|---------------------|---------------------o||
|---------------------|----------------------||
|---------------------|----------------------||
|-2-2-2-2---2-2-2-2---|-2-2-2-2---2-2-2-3---o||
|-0-0-0-0---0-0-0-0---|-0-0-0-0---0-0-0-1----||


    N.C.
   4/4
    S S S S S S S S S S S S S S S S   S S S S S S S S S S S S S S S S   4x
||----------------------------------|-----------------------------------||
||o---------------------------------|----------------------------------o||
||----------------------------------|-----------------------------------||
||----------------------------------|-----------------3-3-3-3-2-2-2-2---||
||o-4-4-4-4-5-5-5-5-----------------|-2-2-2-2-3-3-3-3------------------o||
||------------------3-3-3-3-4-4-4-4-|-----------------------------------||


    E5                                    F#F5E5
   2/2
    PM--|     PM--|       PM--|     PM--|
    |---6---| |---6---|   |---6---| |----6----|
    E E E E Q E E E E Q   E E E E Q E E E E E E
||----------------------|-----------------------|
||o---------------------|-----------------------|
||----------------------|-----------------------|
||----------------------|-----------------------|
||o-2-2-2-2---2-2-2-2---|-2-2-2-2---2-2-2-4-3-2-|
||--0-0-0-0---0-0-0-0---|-0-0-0-0---0-0-0-2-1-0-|


                                        F5
  PM--|     PM--|       PM--|     PM--|
  |---6---| |---6---|   |---6---| |--6--|
  E E E E Q E E E E Q   E E E E Q E E E Q.
|---------------------|----------------------||
|---------------------|---------------------o||
|---------------------|----------------------||
|---------------------|----------------------||
|-2-2-2-2---2-2-2-2---|-2-2-2-2---2-2-2-3---o||
|-0-0-0-0---0-0-0-0---|-0-0-0-0---0-0-0-1----||


 Pre-Verse
  Q=206
  (F5)
  +W           +W
|------------|--------|
|------------|--------|
|------------|--------|
|------------|--------|
|-(3)--------|-(3)----|
|-(1)--------|-(1)----|


  E5                              G5 F5  E5
 4/4
  Gtr I
  PM|    PM|   PM|      PM|   PM|        PM|    PM|   PM|      PM|   PM| ~~
  E E E  E E E E E   E  E E E E E  E E   E E E  E E E E E   E  E E E E E Q
|------------------|-------------------|------------------|------------------|
|------------------|-------------------|------------------|------------------|
|------------------|-------------------|------------------|------------------|
|------------------|-------------------|------------------|------------------|
|-----7------8-----|-7------8-----10p8-|-----7------8-----|-7------8-----6---|
|-0-0----0-0---0-0-|----0-0---0-0------|-0-0----0-0---0-0-|----0-0---0-0-----|
|
| Gtr II
| Q   H.             H.            E E   Q   H.             H.           Q
|------------------|-------------------|------------------|------------------|
|------------------|-------------------|------------------|------------------|
|------------------|-------------------|------------------|------------------|
|------------------|-------------------|------------------|------------------|
|-2----------------|---------------5-3-|-2----------------|--------------6\--|
|-0----------------|---------------3-1-|-0----------------|------------------|


  E5                              G5 F5  E5                            D#5
  PM|   PM|   PM----|     PM  PM|        PM--------------------------| ~
  E E E E E E E E    E  E E E E E  E E   E E E E E E E E   E E E E E E Q
|-----------------|--------------------|-----------------|-----------------|
|-----------------|--------------------|-----------------|-----------------|
|-----------------|--------------------|-----------------|-----------------|
|-----------------|--------------------|-----------------|-----------------|
|-----7-----8-----|--7------8-----10p8-|-2-2-2-2-2-2-2-2-|-2-2-2-2-----6---|
|-0-0---0-0---0-0-|-----0-0---0-0------|-0-0-0-0-0-0-0-0-|-0-0-0-0-0-0-----|
|
|                                        PM----------------------------|
| W                 +H.            E E   E E E E E E E E   E E E E E E Q
|-----------------|--------------------|-----------------|-----------------|
|-----------------|--------------------|-----------------|-----------------|
|-----------------|--------------------|-----------------|-----------------|
|-----------------|--------------------|-----------------|-------------8---|
|-2---------------|-(2)------------5-3-|-2-2-2-2-2-2-2-2-|-2-2-2-2-----6---|
|-0---------------|-(0)------------3-1-|-0-0-0-0-0-0-0-0-|-0-0-0-0-0-0-----|


    Q=206
    $$
    N.C.                                                               D#5
    Gtrs I, II
    PM|   PM|   PM|     PM|   PM|        PM|   PM|   PM|     PM|   PM| ~
    E E E E E E E E   E E E E E E  E E   E E E E E E E E   E E E E E E Q
||------------------|------------------|-----------------|-----------------||
||o-----------------|------------------|-----------------|----------------o||
||------------------|------------------|-----------------|-----------------||
||------------------|------------------|-----------------|-------------8---||
||o-----7-----8-----|-7-----8-----10p8-|-----7-----8-----|-7-----8-----6--o||
||--0-0---0-0---0-0-|---0-0---0-0------|-0-0---0-0---0-0-|---0-0---0-0-----||


   Verse
    $
    N.C.                                                               D#5
    PM|   PM|   PM|     PM|   PM|        PM|   PM|   PM|     PM|   PM| ~
    E E E E E E E E   E E E E E E  E E   E E E E E E E E   E E E E E E Q   4x
||------------------|------------------|-----------------|-----------------||
||o-----------------|------------------|-----------------|----------------o||
||------------------|------------------|-----------------|-----------------||
||------------------|------------------|-----------------|-------------8---||
||o-----7-----8-----|-7-----8-----10p8-|-----7-----8-----|-7-----8-----6--o||
||--0-0---0-0---0-0-|---0-0---0-0------|-0-0---0-0---0-0-|---0-0---0-0-----||


 Chorus
  N.C.(F#)                                                  B5
  PM------------------------------------------------------|
  S S S S S S S S S S S S S S S S   S S S S S S S S S S S S Q
|---------------------------------|----------------------------|
|---------------------------------|----------------------------|
|---------------------------------|----------------------------|
|---------------------------------|-------------------------4--|
|---------------------------------|-------------------------2--|
|-2-2-2-2-2-2-2-2-2-2-2-2-2-2-2-2-|-2-2-2-2-2-2-2-2-2-2-2-2----|


  N.C.(A#)                                                  (B)
  PM--------------------------------------------------------|
  S S S S S S S S S S S S S S S S   S S S S S S S S S S S S Q
|---------------------------------|----------------------------|
|---------------------------------|----------------------------|
|---------------------------------|----------------------------|
|---------------------------------|----------------------------|
|-1-1-1-1-1-1-1-1-1-1-1-1-1-1-1-1-|-1-1-1-1-1-1-1-1-1-1-1-1-2--|
|---------------------------------|----------------------------|


  N.C.(F#)                                                  B5
  PM------------------------------------------------------|
  S S S S S S S S S S S S S S S S   S S S S S S S S S S S S Q
|---------------------------------|----------------------------|
|---------------------------------|----------------------------|
|---------------------------------|----------------------------|
|---------------------------------|-------------------------4--|
|---------------------------------|-------------------------2--|
|-2-2-2-2-2-2-2-2-2-2-2-2-2-2-2-2-|-2-2-2-2-2-2-2-2-2-2-2-2----|


                                   To Coda
  N.C.(A#)                          A#5
  PM----------------------------|
  S S S S S S S S S S S S S S S S   Q  H.
|---------------------------------|-----------|
|---------------------------------|-----------|
|---------------------------------|-----------|
|---------------------------------|-3---------|
|-1-1-1-1-1-1-1-1-1-1-1-1-1-1-1-1-|-1---------|
|---------------------------------|-----------|


   Bridge
    (E)   A#5 B5  A#5   (E)   C#5 D5  C#5
    PM--|   PM  PM  PM------|   PM  PM  PM-
    E S S E E E E E E   E S S E E E E E E
||--------------------|-------------------|
||o-------------------|-------------------|
||--------------------|-------------------|
||--------3---4---3---|-------6---7---6---|
||o-------1---2---1---|-------4---5---4---|
||--0-0-0---0---0---0-|-0-0-0---0---0---0-|


  (E)   A#5     A#5   N.C.
 -----|   PM  PM  PM----------------|
  E S S E E E E E E   E E E E E E E E
|-------------------|--------------------||
|-------------------|-------------------o||
|-------------------|--------------------||
|-------3---4---3---|--------------------||
|-------1---2---1---|-----------2-1-----o||
|-0-0-0---0---0---0-|-3-2-0-2-3-----2----||


                                                                D.S.
  (E)   A#5 B5  A#5   (E)   C#5 D5  C#5   (E)   A#5 B5  A#5
  PM--|   PM  PM  PM------|   PM  PM  PM------|   PM  PM
  E S S E E E E E E   E S S E E E E E E   E S S E E E E q    E E H.
|-------------------|-------------------|------------------|------------||
|-------------------|-------------------|------------------|------------||
|-------------------|-------------------|------------------|------------||
|-------3---4---3---|-------6---7---6---|-------3---4---3--|-3-3--------||
|-------1---2---1---|-------4---5---4---|-------1---2---1--|-1-1--------||
|-0-0-0---0---0---0-|-0-0-0---0---0---0-|-0-0-0---0---0----|------------||


   Interlude
    Q=196
    D5          D#5   D5                  F#5    F5
      PM|   PM|   PM|   PM|     PM|   PM|    PM|    PM|
    E S S E S S E S S E S S   E S S E S S  E S S  E S S
||--------------------------|---------------------------|
||o-------------------------|---------------------------|
||--------------------------|---------------------------|
||--7-----7-----8-----7-----|-7-----7-----11-----10-----|
||o-5-5-5-5-5-5-6-6-6-5-5-5-|-5-5-5-5-5-5--9-9-9--8-8-8-|
||--------------------------|---------------------------|


  1.
  D5          D#5   D5                  B5    D#5
    PM|   PM|   PM|   PM|     PM|   PM|   PM|   PM|
  E S S E S S E S S E S S   E S S E S S E S S E S S
|-------------------------|--------------------------||
|-------------------------|-------------------------o||
|-------------------------|--------------------------||
|-7-----7-----8-----7-----|-7-----7-----------8------||
|-5-5-5-5-5-5-6-6-6-5-5-5-|-5-5-5-5-5-5-9-----6-6-6-o||
|-------------------------|-------------7-7-7--------||


  2.
  D5          D#5   D5                      B5      D#5
  Gtr III
                            TP
  W                         Q       S S S S S S S S S S S S
|-------------------------|---------------------------------||
|-------------------------|---------------------------------||
|-------------------------|--------h4-2h4p2h4p2h4p2h4p2h4p2-||
|-------------------------|-x\------------------------------||
|-------------------------|---------------------------------||
|-------------------------|---------------------------------||
|
| Gtr V
|   PM|   PM|   PM|   PM|      PM|      PM|     PM|     PM|
| E S S E S S E S S E S S   E  S S  E   S S E   S S E   S S
|-------------------------|---------------------------------||
|-------------------------|---------------------------------||
|-------------------------|---------------------------------||
|-7-----7-----8-----7-----|-7-------7---------------8-------||
|-5-5-5-5-5-5-6-6-6-5-5-5-|-5--5-5--5---5-5-9-------6---6-6-||
|-------------------------|-----------------7---7-7---------||


 Solo - Hanneman
  A#5                                   B5                 A#5
   |-------5-------|  |-------5-------|  |-------5-------|  |-------5-------|
   S  S  S    S    S  S  S  S    S    S  S  S  S    S    S  S  S  S    S    S
|-15p13p12--------------15p13p==12------------15p==13p==12------------15p==13p|
|------------15p==13p12--------------15p13p12--------------15p13p12-----------|
|-----------------------------------------------------------------------------|
|-----------------------------------------------------------------------------|
|-----------------------------------------------------------------------------|
|-----------------------------------------------------------------------------|
|
|          PM---|             PM---|             PM---|             PM---|
|  E       S    S     E       S    S     E       S    S     E       S    S
|-----------------------------------------------------------------------------|
|-----------------------------------------------------------------------------|
|-----------------------------------------------------------------------------|
|--3------------------3------------------4------------------3-----------------|
|--1-------1----1-----1-------1----1-----2-------2----2-----1-------1----1----|
|-----------------------------------------------------------------------------|


                               D5                 C#5
                  |---3---|     |-------5-------|  |-------5-------|
   S  S  S  S  S  S  S    S  S  S  S  S    S    S  S  S  S    S    S
|-12------------------------------------------------------------------|
|----15p13p12-13p12-12---12-------------------------------------------|
|---------------------------14p12p11-12---12h==14p12p11---------------|
|-------------------------------------------------------14p==12p==11--|
|---------------------------------------------------------------------|
|---------------------------------------------------------------------|
|
|        PM|           PM---|           PM---|             PM---|
|  E     S  S  E       S     S  E       S    S     E       S    S
|---------------------------------------------------------------------|
|---------------------------------------------------------------------|
|---------------------------------------------------------------------|
|--3-----------3----------------7------------------6------------------|
|--1-----1--1--1-------1-----1--5-------5----5-----4-------4----4-----|
|---------------------------------------------------------------------|


  A#5                                 B5              A#5
   |--3--|         |-------6--------|       |---3---|
   S  S  S  +E     S  S  S  S  S    S  +E   S  S    S  E.    S
|--------------------------------------------------------------|
|--------------------------------------------------------------|
|--------------------------------------------------------------|
|-14p12p11-(11)------------------------------------------------|
|-----------------14p12p11-14p12p==11-(11)------------------12-|
|------------------------------------------14p12p==11-14-------|
|
|            PM-|           PM---|          PM---|        PM|
|  E         S  S  E        S    S      E   S    S     E  S  S
|--------------------------------------------------------------|
|--------------------------------------------------------------|
|--------------------------------------------------------------|
|--3---------------3--------------------4--------------3-------|
|--1---------1--1--1--------1----1------2---2----2-----1--1--1-|
|--------------------------------------------------------------|


                         G5               B5
   S  S  E    S  S  S  S   E       +E       E.    S
|----------------------------------------------------|
|----------------------------------------------------|
|-----------------------------------------/16----16--|
|---------------------12-[14]b16==(14)r--------------|
|-14p12h14---14p12h14--------------------------------|
|----------------------------------------------------|
|
|        PM|        PM|             PM--|      PM|
|  E     S S  E     S  S   E        S   S   E  S  S
|----------------------------------------------------|
|----------------------------------------------------|
|----------------------------------------------------|
|--3----------3-----------------------------4--------|
|--1-----1-1--1-----1--1---5----------------2--2--2--|
|--------------------------3--------3---3------------|


  A#5               B5                 A#5
                     |-------5-------|
   S  S  Q      E    S  S  S    S    S  S  S  S  S
|--------------------------------------------------|
|--------------------------------------------------|
|-14p12p11-----12---14p12p11---14p==12p11----------|
|-----------------------------------------14p12p11-|
|--------------------------------------------------|
|--------------------------------------------------|
|
|        PM|    PM|          PM---|           PM|
|  E     S S E  S S  E       S    S     E     S  S
|--------------------------------------------------|
|--------------------------------------------------|
|--------------------------------------------------|
|--3---------3-------4------------------3----------|
|--1-----1-1-1--1-1--2-------2----2-----1-----1--1-|
|--------------------------------------------------|


                        D5        C#5
                                   |-------5-------|
   S  S  E    S  S  E     E   E    S  S  S    S    S
|-----------------------------------------------------|
|-----------------------------------------------------|
|-----------------------[11]--------------------------|
|-14p12p11-------------------12---17p14h16---17---17--|
|------------14p12h14---------------------------------|
|-----------------------------------------------------|
|
|        PM|        PM|       PM|          PM---|
|  E     S S  E     S S   E   S S  E       S    S
|-----------------------------------------------------|
|-----------------------------------------------------|
|-----------------------------------------------------|
|--3----------3-----------7--------6------------------|
|--1-----1-1--1-----1-1---5---5-5--4-------4----4-----|
|-----------------------------------------------------|


  A#5                                    B5        A#5
                                                    |---3---|
   E      +S    +S   S  S  S        +S    +E   E    E  E    E
|---------------------------------------------------------------|
|----------------------15---------------------------------------|
|-17b19==(17)r-(17)\------17b17.5==(17)r-(17)\-----16p14p==12---|
|---------------------------------------------------------------|
|---------------------------------------------------------------|
|---------------------------------------------------------------|
|
|          PM--|           PM------|           PM|       PM---|
|  E       S     S   E     S         S     E   S S  E    S    S
|---------------------------------------------------------------|
|---------------------------------------------------------------|
|---------------------------------------------------------------|
|--3-----------------3---------------------4--------3-----------|
|--1-------1-----1---1-----1---------1-----2---2-2--1----1----1-|
|---------------------------------------------------------------|
|
| Gtr IV
|  W
|---------------------------------------------------------------|
|---------------------------------------------------------------|
|---------------------------------------------------------------|
|---------------------------------------------------------------|
|---------------------------------------------------------------|
|---------------------------------------------------------------|


                        G5     B5
               \2.5
   S  E.      +H.
|-------------------------------------||
|-------------------------------------||
|-12S13------(13)---------------------||
|-------------------------------------||
|-------------------------------------||
|-------------------------------------||
|
|        PM|        PM|    PM|   PM|
|  E     S S   E    S S E  S S E S S
|-------------------------------------||
|-------------------------------------||
|-------------------------------------||
|--3-----------3---------------4------||
|--1-----1-1---1----1-1-5------2-2-2--||
|-----------------------3--3-3--------||
|
|                       \7
|                       PM-------|
|  Q.               E   E  S S E E
|-------------------------------------||
|-------------------------------------||
|-------------------------------------||
|-------------------------------------||
|-------------------0---0--0-0-0-0----||
|-------------------0---0--0-0-0-0----||


 Solo - King
  D5                      D#5         D5
  Gtr IV
   S  S  S  S  S  S  S  S  S  S  S  S  S  S  S  S
|-------------------------------------------------|
|-------------------------------------------------|
|-------------------------------------------------|
|-12-12-12-12-12-12-12-12-12-12-12-12-12-12-12-12-|
|-------------------------------------------------|
|-------------------------------------------------|
|
| Gtr VI
|        PM|         PM|         PM|         PM|
|  E     S  S  E     S  S  E     S  S  E     S  S
|-------------------------------------------------|
|-------------------------------------------------|
|-------------------------------------------------|
|--7-----------7-----------8-----------7----------|
|--5-----5--5--5-----5--5--6-----6--6--5-----5--5-|
|-------------------------------------------------|


                        F#5     F5
                 \7
                                 ~~
   S  S  S  S  S E.     +Q       Q
|--------------------------------------|
|--------------------------------------|
|--------------------------------------|
|-12-12-12-12-12p0------(0)------------|
|--------------------------------------|
|--------------------------------0-----|
|
|        PM|        PM|     PM|    PM|
|  E     S  S  E    S S  E  S S  E S S
|--------------------------------------|
|--------------------------------------|
|--------------------------------------|
|--7-----------7--------11------10-----|
|--5-----5--5--5----5-5--9--9-9--8-8-8-|
|--------------------------------------|


  D5              D#5   D5                                 B5    D#5
          \5________|    \5/
   ~~~            ~~~~~                         ~~
                         |---3---|
  +Q      E   E   E E    E   E   E      S  +S   Q     Q.          S  S  S  S
|------------------------------------|----------------------------------------|
|------------------------------------|---------------------------19-19-22-22--|
|---------7p==0h==9p0h==10p==0h==7s==|=14-(14)s19-----------------------------|
|------------------------------------|----------------------------------------|
|------------------------------------|----------------------------------------|
|-(0)--------------------------------|----------------------------------------|
|
|     PM|     PM|   PM|        PM--|            PM|   PM-|   PM|        PM|
|  E  S S E   S S E S S  E     S   S    E       S S E S  S E S S  E     S  S
|------------------------------------|----------------------------------------|
|------------------------------------|----------------------------------------|
|------------------------------------|----------------------------------------|
|--7------7-------8------7-----------|--7-----------7-------------8-----------|
|--5--5-5-5---5-5-6-6-6--5-----5---5-|--5-------5-5-5-5--5-9------6-----6--6--|
|------------------------------------|---------------------7-7-7--------------|


  D5                   D#5         D5
   S  S  S  E.    S  S  S  S  S  S  S  S  S  S
|-19-19-21-21----19-19-22-22-19-19-------------|
|----------------------------------22-22-19-19-|
|----------------------------------------------|
|----------------------------------------------|
|----------------------------------------------|
|----------------------------------------------|
|
|        PM|      PM|         PM|         PM|
|  E     S  S  E  S  S  E     S  S  E     S  S
|----------------------------------------------|
|----------------------------------------------|
|----------------------------------------------|
|--7-----------7--------8-----------7----------|
|--5-----5--5--5--5--5--6-----6--6--5-----5--5-|
|----------------------------------------------|


                          F#5         F5
   S  S  S  S  S  S  S  S  S  S  S  S  S  S  S  S
|---------------------------------------------------|
|-20-20-17-17---------------------------------------|
|-------------19-19-17-16-17-16-18-18-15-14-15-14S==|
|---------------------------------------------------|
|---------------------------------------------------|
|---------------------------------------------------|
|
|        PM|         PM|         PM|         PM|
|  E     S  S  E     S  S  E     S  S  E     S  S
|---------------------------------------------------|
|---------------------------------------------------|
|---------------------------------------------------|
|--7-----------7----------11----------10------------|
|--5-----5--5--5-----5--5--9-----9--9--8-----8--8---|
|---------------------------------------------------|


  D5                            D#5         D5
              |-------5-------|
   S  E    S  S  S  S    S    S  S  S  S  S  S E    S
|-----------------------------------------------------|
|-----------------------------------------------------|
|-16-16---19S22-22-19h==21---22-22-22-22-22-22p0---22-|
|-----------------------------------------------------|
|-----------------------------------------------------|
|-----------------------------------------------------|
|
|       PM|           PM---|           PM|       PM|
|  E    S  S  E       S    S     E     S  S  E   S  S
|-----------------------------------------------------|
|-----------------------------------------------------|
|-----------------------------------------------------|
|--7----------7------------------8-----------7--------|
|--5----5--5--5-------5----5-----6-----6--6--5---5--5-|
|-----------------------------------------------------|


                    B5    D#5
             \7
   S  S E   +H.
|-------------------------------||
|-------------------------------||
|-22-22p0---(0)-----------------||
|-------------------------------||
|-------------------------------||
|-------------------------------||
|
|       PM|     PM|   PM|   PM|
|  E    S S  E  S S E S S E S S
|-------------------------------||
|-------------------------------||
|-------------------------------||
|--7---------7------------8-----||
|--5----5-5--5--5-5-9-----6-6-6-||
|-------------------7-7-7-------||


 Solo - Hanneman
  N.C.(F)
  Gtr III
  |--------6--------|   |--3--|
  E E   E   E   E   E   S S   S S S S S S S
|-----------5-------------------------------|
|-5-7---8-------8---7---5---------5---------|
|-------------------------7p==6h7---7-6-4---|
|-----------------------------------------7-|
|-------------------------------------------|
|-------------------------------------------|
|
| Gtr V
|     PM----------------------------------|
| E   S   S S S   S   S S   S   S S S S S S
|-------------------------------------------|
|-------------------------------------------|
|-------------------------------------------|
|-------------------------------------------|
|-------------------------------------------|
|-1---1---1-1-1---1---1-1---1---1-1-1-1-1-1-|


  |--3--|
  E E   E   S S S  E    S S S S E   S
|---------------------------------------|
|---------------------------------------|
|-4---------------------------------4---|
|---7---4-----4---[4]-----4---4-7-------|
|-----------7---7-------7---7-----------|
|---------------------------------------|
|
|     PM----------------------------|
| E   S   S S S S  S  S S S S S S S S
|---------------------------------------|
|---------------------------------------|
|---------------------------------------|
|---------------------------------------|
|---------------------------------------|
|-1---1---1-1-1-1--1--1-1-1-1-1-1-1-1---|


  (G#)
   ~~~
                                      |--------6--------|
  +H.                     +E    S S   E E   E   E   E   E   S S S S S S S S
|-----------------------------------|----------------------------------------|
|-----------------------------------|----------------------------------------|
|-(4)---------------------(4)s==3p0-|-5p3p==0---7p==5p==0---9p7h9p7h9p7h9p7--|
|-----------------------------------|----------------------------------------|
|-----------------------------------|----------------------------------------|
|-----------------------------------|----------------------------------------|
|
|     PM--------------------------|       PM------------------------------|
|  E  S S S S S S S S S S  S  S S S   E   S   S S S   S   S S S S S S S S S
|-----------------------------------|----------------------------------------|
|-----------------------------------|----------------------------------------|
|-----------------------------------|----------------------------------------|
|-----------------------------------|----------------------------------------|
|-----------------------------------|----------------------------------------|
|--4--4-4-4-4-4-4-4-4-4-4--4--4-4-4-|-4---4---4-4-4---4---4-4-4-4-4-4-4-4-4--|


  (E)
   T       T         T         T         T         T         T         T
   |------6-------|  |-------6--------|  |-------6--------|  |-------6--------|
   S  S S  S  S   S  S  S   S  S  S   S  S  S   S  S  S   S  S  S   S  S  S   S
|-------------------------------------------------------------------------------|
|-------------------------------------------------------------------------------|
|-14p10p7-14p10p==7-14p10p==7-14p10p==7-14p10p==7-14p10p==7-14p10p==7-14p10p==7-|
|-------------------------------------------------------------------------------|
|-------------------------------------------------------------------------------|
|-------------------------------------------------------------------------------|
|
|          PM---------------------------------------------------------------|
|  E       S    S    S    S    S    S    S    S    S    S    S    S    S    S
|-------------------------------------------------------------------------------|
|-------------------------------------------------------------------------------|
|-------------------------------------------------------------------------------|
|-------------------------------------------------------------------------------|
|-------------------------------------------------------------------------------|
|--0-------0----0----0----0----0----0----0----0----0----0----0----0----0----0---|


   T       T         T         T         T         T         T         T
   |------6-------|  |-------6--------|  |-------6--------|  |-------6--------|
   S  S S  S  S   S  S  S   S  S  S   S  S  S   S  S  S   S  S  S   S  S  S   S
|--------------------------------------------------------------------------------|
|--------------------------------------------------------------------------------|
|-15p10p7-15p10p==7-15p10p==7-15p10p==7-14p10p==7-14p10p==7-14p10p==7-14p10p==7--|
|--------------------------------------------------------------------------------|
|--------------------------------------------------------------------------------|
|--------------------------------------------------------------------------------|
|
|          PM---------------------------------------------------------------|
|  E       S    S    S    S    S    S    S    S    S    S    S    S    S    S
|--------------------------------------------------------------------------------|
|--------------------------------------------------------------------------------|
|--------------------------------------------------------------------------------|
|--------------------------------------------------------------------------------|
|--------------------------------------------------------------------------------|
|--0-------0----0----0----0----0----0----0----0----0----0----0----0----0----0----|


  (A#)
   T      T        T        T        T        T        T        T
   |-----6------|  |------6-------|  |------6-------|  |------6-------|
   S S S  S S   S  S S   S  S S   S  S S   S  S S   S  S S   S  S S   S
|-----------------------------------------------------------------------|
|-----------------------------------------------------------------------|
|-14p9p7-14p9p==7-14p9p==7-14p9p==7-14p9p==7-14p9p==7-14p9p==7-14p9p==7-|
|-----------------------------------------------------------------------|
|-----------------------------------------------------------------------|
|-----------------------------------------------------------------------|
|
|         PM--------------------------------------------------------|
|  E      S   S    S   S    S   S    S   S    S   S    S   S    S   S
|-----------------------------------------------------------------------|
|-----------------------------------------------------------------------|
|-----------------------------------------------------------------------|
|-----------------------------------------------------------------------|
|-----------------------------------------------------------------------|
|--6------6---6----6---6----6---6----6---6----6---6----6---6----6---6---|


  \7
  W
|-----------------------------------||
|-----------------------------------||
|-----------------------------------||
|-----------------------------------||
|-0---------------------------------||
|-----------------------------------||
|
|    PM------------------------|
| E  S S S S S S S S S S S S S S
|-----------------------------------||
|-----------------------------------||
|-----------------------------------||
|-----------------------------------||
|-----------------------------------||
|-6--6-6-6-6-6-6-6-6-6-6-6-6-6-6----||


   Bridge
    N.C.
    Gtrs I, II
    S S S S S S S S S S S S S S S S   S S S S S S S S S S S S S S S S  3x
||----------------------------------|----------------------------------||
||o---------------------------------|---------------------------------o||
||----------------------------------|----------------------------------||
||----------------------------------|-----------------3-3-3-3-2-2-2-2--||
||o-4-4-4-4-5-5-5-5-----------------|-2-2-2-2-3-3-3-3-----------------o||
||------------------3-3-3-3-4-4-4-4-|----------------------------------||


  N.C.
  Gtr IV
                                                             |---3---|
  W                                 H.                       E   E   E
|---------------------------------|---------------------------------------||
|---------------------------------|---------------------------------------||
|---------------------------------|--------------------------7p==4h==7----||
|---------------------------------|---------------------------------------||
|---------------------------------|---------------------------------------||
|---------------------------------|---------------------------------------||
|
| Gtr VI
| S S S S S S S S S S S S S S S S   S  S S S S S S S S S S S S S   S   S
|---------------------------------|---------------------------------------||
|---------------------------------|---------------------------------------||
|---------------------------------|---------------------------------------||
|---------------------------------|------------------3-3-3-3-2-2---2---2--||
|-4-4-4-4-5-5-5-5-----------------|-2--2-2-2-3-3-3-3----------------------||
|-----------------3-3-3-3-4-4-4-4-|---------------------------------------||


 Solo - King
  N.C.(F)
   T      T        T        T        T        T        T        T
   |-----6------|  |------6-------|  |------6-------|  |------6-------|
   S S S  S S   S  S S   S  S S   S  S S   S  S S   S  S S   S  S S   S
|-----------------------------------------------------------------------|
|-----------------------------------------------------------------------|
|-12p7p4-12p7p==4-12p7p==4-12p7p==4-12p7p==4-12p7p==4-12p7p==4-12p7p==4-|
|-----------------------------------------------------------------------|
|-----------------------------------------------------------------------|
|-----------------------------------------------------------------------|
|
|         PM--------------------------------------------------------|
|  E      S   S    S   S    S   S    S   S    S   S    S   S    S   S
|-----------------------------------------------------------------------|
|-----------------------------------------------------------------------|
|-----------------------------------------------------------------------|
|-----------------------------------------------------------------------|
|-----------------------------------------------------------------------|
|--1------1---1----1---1----1---1----1---1----1---1----1---1----1---1---|


   T      T        T        T        T        T        T        T
   |-----6------|  |------6-------|  |------6-------|  |------6-------|
   S S S  S S   S  S S   S  S S   S  S S   S  S S   S  S S   S  S S   S
|------------------------------------------------------------------------|
|------------------------------------------------------------------------|
|-12p7p4-12p7p==4-12p7p==4-12p7p==4-12p7p==4-12p7p==4-12p7p==4-12p7p==4--|
|------------------------------------------------------------------------|
|------------------------------------------------------------------------|
|------------------------------------------------------------------------|
|
|         PM--------------------------------------------------------|
|  E      S   S    S   S    S   S    S   S    S   S    S   S    S   S
|------------------------------------------------------------------------|
|------------------------------------------------------------------------|
|------------------------------------------------------------------------|
|------------------------------------------------------------------------|
|------------------------------------------------------------------------|
|--1------1---1----1---1----1---1----1---1----1---1----1---1----1---1----|


  (G#)
    T      T        T        T        T        T         T          T
    |-----6------|  |------6-------|  |------6-------|   |--------6--------|
    S S S  S S   S  S S   S  S S   S  S S   S  S S   S   S  S   S   S  S   S
|----------------------------------------------------------------------------|
|----------------------------------------------------------------------------|
|-/13p8p5-13p8p==5-13p8p==5-13p8p==5-13p9p==5-13p9p==5-/14p10p==7-/15p10p==7-|
|----------------------------------------------------------------------------|
|----------------------------------------------------------------------------|
|----------------------------------------------------------------------------|
|
|          PM------------------------------------------------------------|
|   E      S   S    S   S    S   S    S   S    S   S     S    S     S    S
|----------------------------------------------------------------------------|
|----------------------------------------------------------------------------|
|----------------------------------------------------------------------------|
|----------------------------------------------------------------------------|
|----------------------------------------------------------------------------|
|---4------4---4----4---4----4---4----4---4----4---4-----4----4-----4----4---|


  (G#)
    T        T          T         T         T          T          T          T
    |-------6-------|   |-------6--------|  |--------6---------|  |--------6---------|
    S  S S   S  S   S   S  S   S  S  S   S  S  S   S   S  S    S  S  S    S  S  S    S
|--------------------------------------------------------------------------------------|
|--------------------------------------------------------------------------------------|
|-/16p11p7-/17p12p==9-/18p13p==9-18p13p==9-18p13p==9-/19p14p==11-19p14p==11-19p14p==11-|
|--------------------------------------------------------------------------------------|
|--------------------------------------------------------------------------------------|
|--------------------------------------------------------------------------------------|
|
|            PM-------------------------------------------------------------------|
|   E        S    S     S    S    S    S    S    S     S    S     S    S     S    S
|--------------------------------------------------------------------------------------|
|--------------------------------------------------------------------------------------|
|--------------------------------------------------------------------------------------|
|--------------------------------------------------------------------------------------|
|--------------------------------------------------------------------------------------|
|---4--------4----4-----4----4----4----4----4----4-----4----4-----4----4-----4----4----|


  (E)
                            T            T             T             T
                        |-----------7------------|  |---------7----------|
   E  S  S   E    E    +S   S    S  S    S  S    S  S  S    S S   S  S   S
|-18-18s17\----------------------------------------------------------------|
|-----------18---18---(18)-16p==13p12---16p13s==12p11-15p==10p9p==8-14p==8-|
|--------------------------------------------------------------------------|
|--------------------------------------------------------------------------|
|--------------------------------------------------------------------------|
|--------------------------------------------------------------------------|
|
|     PM---------------------------------------------------------------|
|  E  S  S   S S  S S   S     S       S       S     S    S      S      S
|--------------------------------------------------------------------------|
|--------------------------------------------------------------------------|
|--------------------------------------------------------------------------|
|--------------------------------------------------------------------------|
|--------------------------------------------------------------------------|
|--0--0--0---0-0--0-0---0-----0-------0-------0-----0----0------0------0---|


                             T            T             T             T
                         |-----------7------------|  |---------7----------|
    E  S  S   E    E    +S   S    S  S    S  S    S  S  S    S S   S  S   S
|-/18-18s17\-------------------------------------------------------------------|
|------------18---18---(18)-16p==13p12---16p13s==12p11-15p==10p9p==8-14p==8----|
|------------------------------------------------------------------------------|
|------------------------------------------------------------------------------|
|------------------------------------------------------------------------------|
|------------------------------------------------------------------------------|
|
|      PM---------------------------------------------------------------|
|   E  S  S   S S  S S   S     S       S       S     S    S      S      S
|------------------------------------------------------------------------------|
|------------------------------------------------------------------------------|
|------------------------------------------------------------------------------|
|------------------------------------------------------------------------------|
|------------------------------------------------------------------------------|
|---0--0--0---0-0--0-0---0-----0-------0-------0-----0----0------0------0------|


  (A#)
                            T            T             T             T
                        |-----------7------------|  |---------7----------|
   E  S  S   E    E    +S   S    S  S    S  S    S  S  S    S S   S  S   S
|-18-18s17\----------------------------------------------------------------|
|-----------18---18---(18)-16p==13p12---16p13s==12p11-15p==10p9p==8-14p==8-|
|--------------------------------------------------------------------------|
|--------------------------------------------------------------------------|
|--------------------------------------------------------------------------|
|--------------------------------------------------------------------------|
|
|     PM---------------------------------------------------------------|
|  E  S  S   S S  S S   S     S       S       S     S    S      S      S
|--------------------------------------------------------------------------|
|--------------------------------------------------------------------------|
|--------------------------------------------------------------------------|
|--------------------------------------------------------------------------|
|--------------------------------------------------------------------------|
|--6--6--6---6-6--6-6---6-----6-------6-------6-----6----6------6------6---|


                                                              D.S.S. al Coda
                             T            T             T             T
                         |-----------7------------|  |---------7----------|
    E  S  S   E    E    +S   S    S  S    S  S    S  S  S    S S   S  S   S
|-/18-18s17\-------------------------------------------------------------------||
|------------18---18---(18)-16p==13p12---16p13s==12p11-15p==10p9p==8-14p==8----||
|------------------------------------------------------------------------------||
|------------------------------------------------------------------------------||
|------------------------------------------------------------------------------||
|------------------------------------------------------------------------------||
|
|      PM---------------------------------------------------------------|
|   E  S  S   S S  S S   S     S       S       S     S    S      S      S
|------------------------------------------------------------------------------||
|------------------------------------------------------------------------------||
|------------------------------------------------------------------------------||
|------------------------------------------------------------------------------||
|------------------------------------------------------------------------------||
|---6--6--6---6-6--6-6---6-----6-------6-------6-----6----6------6------6------||


   Outro
    Q=206
    &
    (E)   A#5 B5  A#5   (E)   C#5 D5  C#5
    Gtrs I, II
    PM--|   PM  PM  PM------|   PM  PM  PM-
    E S S E E E E E E   E S S E E E E E E
||--------------------|-------------------|
||o-------------------|-------------------|
||--------------------|-------------------|
||--------3---4---3---|-------6---7---6---|
||o-------1---2---1---|-------4---5---4---|
||--0-0-0---0---0---0-|-0-0-0---0---0---0-|


  (E)   A#5 B5  A#5   N.C.
 -----|   PM  PM  PM
  E S S E E E E E E   E E E E E E E E    3x
|-------------------|--------------------||
|-------------------|-------------------o||
|-------------------|--------------------||
|-------3---4---3---|--------------------||
|-------1---2---1---|-----------2-1-----o||
|-0-0-0---0---0---0-|-3-2-0-2-3-----2----||


  (E)   A#5 B5  A#5   (E)   C#5 D5  C#5   (E)   A#5 B5  A#5  E5
  PM--|   PM  PM  PM------|   PM  PM  PM------|   PM  PM
  E S S E E E E E E   E S S E E E E E E   E S S E E E E q    E E H.
|-------------------|-------------------|------------------|-----------*|
|-------------------|-------------------|------------------|-----------*|
|-------------------|-------------------|------------------|-----------*|
|-------3---4---3---|-------6---7---6---|-------3---4---3--|-2-2-------*|
|-------1---2---1---|-------4---5---4---|-------1---2---1--|-2-2-------*|
|-0-0-0---0---0---0-|-0-0-0---0---0---0-|-0-0-0---0---0----|-0-0-------*|



Duration Legend
---------------
W - whole; H - half; Q - quarter; E - 8th; S - 16th; T - 32nd; X - 64th; a - acciaccatura
+ - note tied to previous; . - note dotted; .. - note double dotted
Uncapitalized letters represent notes that are staccato (1/2 duration)
Irregular groupings are notated above the duration line
Duration letters will always appear directly above the note/fret number it represents the
duration for.  Duration letters with no fret number below them represent rests.  Multi-
bar rests are notated in the form Wxn, where n is the number of bars to rest for.  Low
melody durations appear below the staff

Tablature Legend
----------------
 h   - hammer-on
 p   - pull-off
 b   - bend
 pb  - pre-bend
 r   - bend release (if no number after the r, then release immediately)
 /\  - slide into or out of (from/to "nowhere")
 s   - legato slide
 S   - shift slide
 - natural harmonic
[n]  - artificial harmonic
n(n) - tapped harmonic
 ~   - vibrato
 tr  - trill
 T   - tap
 TP  - trem. picking
 PM  - palm muting
\n/  - tremolo bar dip; n = amount to dip
 \n  - tremolo bar down
 n/  - tremolo bar up
/n\  - tremolo bar inverted dip
 =   - hold bend; also acts as connecting device for hammers/pulls
 <> - volume swell (louder/softer)
 x   - on rhythm slash represents muted slash
 o   - on rhythm slash represents single note slash

Misc Legend
-----------
 |  - bar
||  - double bar
||o - repeat start
o|| - repeat end
*|  - double bar (ending)
 :  - bar (freetime)
 $  - Segno
 &  - Coda
Tempo markers -  = BPM(8/16=s8/s16), where s8 = swing 8ths, s16 = swing 16ths

Related for Kill Again tab