Song name
# A B C D E F G H I J K L M N O P Q R S T U V W X Y Z

Slayer - Drunk Drives Against Mad Mothers tab

SLAYER
Drunk Drivers Against Mad Mothers (Ddamm)
From the album "Undisputed Attitude"
Tabbed by David Lichter (lichter@ebox.tninet.se)

Tune down 1/2 step!

   Swerwing through the street...
Eb|------------------------------|
Bb|------------------------------|
Gb|------------------------------|
Db|-----------8--7-7--6-6--------|
Ab|--5-5--6---6--5-5--4-4--------|
Eb|--3-3--4----------------------|

Hit her car, smash her up...
Eb|---------------------|
Bb|---------------------|
Gb|---------------------|
Db|---------------------|
Ab|-----5--4------------|
Eb|--3-------4----------|

Solo

Can't find any beer, it`s way past...
Eb|------------------------------|
Bb|------------------------------|
Gb|------------------------------|
Db|-----------8--7-7--6-6--------|
Ab|--5-5--6---6--5-5--4-4--------|
Eb|--3-3--4----------------------|

Hit her car, smash her up...
Eb|---------------------|
Bb|---------------------|
Gb|---------------------|
Db|---------------------|
Ab|-----5--4------------|
Eb|--3-------4----------|

Any comments, questions mail me at lichter@ebox.tninet.se
Tap to rate this tab
# A B C D E F G H I J K L M N O P Q R S T U V W X Y Z