Song name
# A B C D E F G H I J K L M N O P Q R S T U V W X Y Z

Slayer - Here Comes The Pain tab

#----------------------------------PLEASE NOTE---------------------------------#
#This file is the author's own work and represents their interpretation of the #
#song. You may only use this file for private study, scholarship, or research. #
#------------------------------------------------------------------------------#

HERE COMES THE PAIN
As recorded by Slayer
(From the 2001 Album GOD HATES US ALL)

Transcribed by Israel Luna
	

Words and Music by Kerry King

G#5
4 6 6 x x x
	
F5
1 3 3 x x x

Gtr I (B E A D Gb B) - 'Kerry'
Gtr II (B E A D Gb B) - 'Jeff'

   Intro
    Q=90
    F5E5F5E5                             F5E5F5E5            F5E5F5
   4/4                                                      1/4
    Gtrs I, II
    S S E Q  +H       +W          4x     S S E Q  +H      4x S S E
||------------------|-------------||-||-------------------||--------|
||o-----------------|------------o||-||o-----------------o||--------|
||------------------|-------------||-||-------------------||--------|
||------------------|-------------||-||-------------------||--------|
||o-3-2-3-2--(2)----|-(2)--------o||-||o-3-2-3-2--(2)----o||-3-2-3--|
||--1-0-1-0--(0)----|-(0)---------||-||--1-0-1-0--(0)-----||-1-0-1--|


          G#5     G5    F5        G#5     G5F5F5
   4/4
    S S E E S S E E S S E   S S E E S S E E E E  4x
||------------------------|----------------------||
||o-----------------------|---------------------o||
||------------------------|----------------------||
||------------------------|----------------------||
||o-------6-------5-----3-|-------6-------5-3-3-o||
||--0-0-0-4-0-0-0-3-0-0-1-|-0-0-0-4-0-0-0-3-1-1--||


      F5E5F5E5            F5E5F5
                         1/4
      S S E Q  +H      4x S S E
|-||-------------------||--------||
|-||o-----------------o||--------||
|-||-------------------||--------||
|-||-------------------||--------||
|-||o-3-2-3-2--(2)----o||-3-2-3--||
|-||--1-0-1-0--(0)-----||-1-0-1--||


 Verse
  Q=130
                                        G#5F5
 4/4
  Gtr II
  W                         H           Q  Q
                                        |  |
                                        /  /

  Gtr I
  S E S S E S S E S S E S   S E S S E S Q  Q
|-------------------------|-------------------|
|-------------------------|-------------------|
|-------------------------|-------------------|
|-------------------------|-------------------|
|-------------------------|-------------6--3--|
|-0-0-0-0-0-0-0-0-0-0-0-0-|-0-0-0-0-0-0-4--1--|


                                          F5 G#5
    Gtrs I, II
    S E S S E S S E S S E S   S E S S E S Q  Q   4x
||--------------------------|--------------------||
||o-------------------------|-------------------o||
||--------------------------|--------------------||
||--------------------------|--------------------||
||o-------------------------|-------------3--6--o||
||--0-0-0-0-0-0-0-0-0-0-0-0-|-1-1-0-0-0-0-1--4---||


   Chorus
                        1.                      2.
    G5                                 A5G#5    G5          A5G#5    G#F5G5
                                                                    2/4
                                                                     |-3-|
    S S E S S E +H       S S E S S E E E Q      S S E S S E E E Q    Q Q Q
||---------------------|---------------------||--------------------|--------|
||o--------------------|--------------------o||--------------------|--------|
||---------------------|---------------------||--------------------|--------|
||---------------------|---------------------||--------------------|--------|
||o-5-5-5-5-5-5-(5)----|-5-5-5-5-5-5-5-7-6--o||-5-5-5-5-5-5-7-6----|-6-3-5--|
||--3-3-3-3-3-3-(3)----|-3-3-3-3-3-3-3-5-4---||-3-3-3-3-3-3-5-4----|-4-1-3--|


  Q=90
                 G#F5G5                 G#F5G5
 4/4
  S E. E S S +E  E E E   S E. E S S +E  E E E
|----------------------|----------------------|
|----------------------|----------------------|
|----------------------|----------------------|
|----------------------|----------------------|
|----------------6-3-5-|----------------6-3-5-|
|-0-0--0-0-0-(0)-4-1-3-|-0-0--0-0-0-(0)-4-1-3-|


                 G#F5G5                 G#5   F5
  S E. E S S +E  E E E   S E. E S S +E  E S S E
|----------------------|------------------------||
|----------------------|------------------------||
|----------------------|------------------------||
|----------------------|------------------------||
|----------------6-3-5-|----------------6-----3-||
|-0-0--0-0-0-(0)-4-1-3-|-0-0--0-0-0-(0)-4-0-0-1-||


 Verse
  Q=130
                                        G#5F5
 4/4
  Gtr II
  W                         H           Q  Q
                                        |  |
                                        /  /

  Gtr I
  S E S S E S S E S S E S   S E S S E S Q  Q
|-------------------------|-------------------|
|-------------------------|-------------------|
|-------------------------|-------------------|
|-------------------------|-------------------|
|-------------------------|-------------6--3--|
|-0-0-0-0-0-0-0-0-0-0-0-0-|-0-0-0-0-0-0-4--1--|


                                          F5 G#5
    Gtrs I, II
    S E S S E S S E S S E S   S E S S E S Q  Q   4x
||--------------------------|--------------------||
||o-------------------------|-------------------o||
||--------------------------|--------------------||
||--------------------------|--------------------||
||o-------------------------|-------------3--6--o||
||--0-0-0-0-0-0-0-0-0-0-0-0-|-1-1-0-0-0-0-1--4---||


   Chorus
                        1.                      2.
    G5                                 A5G#5    G5          A5G#5      F5G5
                                                                    2/4
                                                                     |-3-|
    S S E S S E +H       S S E S S E E E Q      S S E S S E E E Q    Q Q Q
||---------------------|---------------------||--------------------|--------||
||o--------------------|--------------------o||--------------------|--------||
||---------------------|---------------------||--------------------|--------||
||---------------------|---------------------||--------------------|--------||
||o-5-5-5-5-5-5-(5)----|-5-5-5-5-5-5-5-7-6--o||-5-5-5-5-5-5-7-6----|-6-3-5--||
||--3-3-3-3-3-3-(3)----|-3-3-3-3-3-3-3-5-4---||-3-3-3-3-3-3-5-4----|-4-1-3--||


   Bridge
    Q=90
                   G#F5G5                 G#5   F5        F5E5F5E5
   4/4
    S E. E S S +E  E E E   S E. E S S +E  E S S E  4x     S S E Q  +H      4x
||-----------------------|-------------------------||-||-------------------||
||o----------------------|------------------------o||-||o-----------------o||
||-----------------------|-------------------------||-||-------------------||
||-----------------------|-------------------------||-||-------------------||
||o----------------6-3-5-|----------------6-----3-o||-||o-3-2-3-2--(2)----o||
||--0-0--0-0-0-(0)-4-1-3-|-0-0--0-0-0-(0)-4-0-0-1--||-||--1-0-1-0--(0)-----||


 Guitar Solo (Kerry)
  F5E5F5E5                    G#5      G5    F5
  Gtr I
                                         ~~~~~~~
  H         H        H               Q   E   E
|-----------------|----------------------------|
|-----------------|-19b21----------------------|
|-0S=======20-----|-19b21-----------19---5S==6S|
|-----------------|----------------------------|
|-----------------|----------------------------|
|-----------------|----------------------------|
|
| Gtr II
| S S E Q  +H        S    S E E S S  E E S S E
|-----------------|----------------------------|
|-----------------|----------------------------|
|-----------------|----------------------------|
|-----------------|----------------------------|
|-3-2-3-2--(2)----|-----------6--------5-----3-|
|-1-0-1-0--(0)----|--0----0-0-4-0-0--0-3-0-0-1-|


        G#5     G5F5               G#5         G5        F5
 ~~~~~~~~~~~~~~~~~~~~~~~~~~~~~~~~~~
  E   Q   Q.       E  E    S  S  E  H             E       E
|-----------------------|--------------------------------------|
|-----------------------|--------------------------------------|
|-5S==6S==8S======16S17S|=18S19S20-19b21---------19b21---19b21-|
|-----------------------|--------------------------------------|
|-----------------------|--------------------------------------|
|-----------------------|--------------------------------------|
|
| S S E E S S E E  E  E    S  S  E  E    S S E E  S    S  E
|-----------------------|--------------------------------------|
|-----------------------|--------------------------------------|
|-----------------------|--------------------------------------|
|-----------------------|--------------------------------------|
|-------6-------5--3--3-|-----------6----------5----------3----|
|-0-0-0-4-0-0-0-3--1--1-|--0--0--0--4----0-0-0-3--0----0--1----|


                   G#5             G5  F5
                               \3/
                                     ~~~~~~
   E      S  Q          +E     E     S  S  S T T T T
|--------------------------------------------5-6-5-6-|
|----------------------------------------------------|
|-19b21-----19b21======(19)r---1-----5S13S16---------|
|----------------------------------------------------|
|----------------------------------------------------|
|----------------------------------------------------|
|
|  S    S E        E S   S   E     E    E    E
|----------------------------------------------------|
|----------------------------------------------------|
|----------------------------------------------------|
|----------------------------------------------------|
|------------------6---------------5----3----3-------|
|--0----0-0--------4-0---0---0-----3----1----1-------|


                G#5                   G5              F5
  T T T T T S T T T T T T T S T T T T  S T T T T  T T  T T  T T
|-5-6-8-6-5---5-6-5-6-8-6-5---5-6-5------7-8-7-8-10-8-10-9-10-9-|
|-----------8---------------8-------8-10------------------------|
|---------------------------------------------------------------|
|---------------------------------------------------------------|
|---------------------------------------------------------------|
|---------------------------------------------------------------|
|
| S   S   E     E       S   S E        E     S    S    E
|---------------------------------------------------------------|
|---------------------------------------------------------------|
|---------------------------------------------------------------|
|---------------------------------------------------------------|
|---------------6----------------------5---------------3--------|
|-0---0---0-----4-------0---0-0--------3-----0----0----1--------|


                       G#5                             G5     F5
                                                          /1\
                                                                   ~~~~~~
   T  T  S  T  T  T  S    T  S  T  T  T  T  T  T  T  T  S E     S  E
|-10-10-11-10-11-11-12---11-12-12-13-12-13-14-13-14-12-14-------0h17b18-|
|-----------------------------------------------------------------------|
|---------------------------------------------------------0-------------|
|-----------------------------------------------------------------------|
|-----------------------------------------------------------------------|
|-----------------------------------------------------------------------|
|
|  S     S  E          E        S     S     E           E     E    E
|-----------------------------------------------------------------------|
|-----------------------------------------------------------------------|
|-----------------------------------------------------------------------|
|-----------------------------------------------------------------------|
|----------------------6--------------------------------5-----3----3----|
|--0-----0--0----------4--------0-----0-----0-----------3-----1----1----|


            G#5        G5           F5             G#5     G5F5
                                         /1.5\               /1\
 ~~~~~~   ~~~
   +S  S  E.  S  Q      S  S  +Q         H.                  Q
|-(17)-0-19p==0h21-----19-------------|-21---------------------------||
|-------------------------17-(17)-----|-20---------------------------||
|-------------------------------------|----------------------0-------||
|-------------------------------------|----------------------0-------||
|-------------------------------------|------------------------------||
|-------------------------------------|------------------------------||
|
|   S  S  E E    S S E  E      S  S E    S     S E E S S E E E   E
|-------------------------------------|------------------------------||
|-------------------------------------|------------------------------||
|-------------------------------------|------------------------------||
|-------------------------------------|------------------------------||
|-----------6-----------5-----------3-|------------6-------5-3---3---||
|---0--0--0-4----0-0-0--3------0--0-1-|--0-----0-0-4-0-0-0-3-1---1---||


   Interlude
    Q=60
    E5        E5
    E E S E S +S  S S S S S E  4x     E E S E S +S  S S S S S E  4x
||-----------------------------||-||-----------------------------||
||o---------------------------o||-||o---------------------------o||
||-----------------------------||-||-----------------------------||
||------8-7-------------8-7----||-||------8-7-------------8-7----||
||o---7-----------7-6-7-----6-o||-||o---7-----------7-6-7-----6-o||
||--0-------0-(0)--------------||-||--0-------0-(0)--------------||
|
|   H          H               4x     E E S E S +S  S S S S S E  4x
||-----------------------------||-||-----------------------------||
||o---------------------------o||-||o---------------------------o||
||-----------------------------||-||-----------------------------||
||-----------------------------||-||------8-7-------------8-7----||
||o-2----------2--------------o||-||o---7-----------7-6-7-----6-o||
||--0----------0---------------||-||--0-------0-(0)--------------||


   Verse
    E5  BbA5E5      F5  BbA5F5    E5  BbA5E5      F5E5BbA5F5
    Gtr I
    E E S E S +S  S S S S S E  3x E E S E S +S  S S S S S E
||-----------------------------||------------------------------||
||o---------------------------o||------------------------------||
||-----------------------------||------------------------------||
||------3-2-------------3-2----||-----3-2-------------3-2------||
||o-2---1-0-2-(2)-2-3-2-1-0-3-o||-2---1-0-2-(2)-2-3-2-1-0-3----||
||--0-0-----0-(0)-0-1-0-----1--||-0-0-----0-(0)-0-1-0-----1----||
|
|   Gtr II
|   E E S E S +S  S S S S S E  3x E E S E S +S  S S S S S S  S
||-----------------------------||------------------------------||
||o---------------------------o||------------------------------||
||-----------------------------||---------------------------12-||
||------3-2-------------3-2----||-----3-2-------------3-2------||
||o-2---1-0-2-(2)-2-3-2-1-0-3-o||-2---1-0-2-(2)-2-3-2-1-0------||
||--0-0-----0-(0)-0-1-0-----1--||-0-0-----0-(0)-0-1-0----------||


 Guitar Solo (Jeff)
  Q=90
  E5                        G#F5       G5
    S   E.    E S     S +E  E  E       E
|---------------------------------------------|
|---------------------------------------------|
|---------------------------------------------|
|---------------------------------------------|
|---2---2-----2-2-----2-(2)-6--3-------5------|
|---0---0-----0-0-----0-(0)-4--1-------3------|
|
|           ~~           ~~~      ~~~~~~
|  +S   S.  Q      S.    Q     S  E       +S
|------15---------16----------17--------------|
|----------14-----------15-------17b19r==(17)-|
|-(12)----------------------------------------|
|---------------------------------------------|
|---------------------------------------------|
|---------------------------------------------|


  E5                              G#5      F5          G5
    S  E.     E    S  S +E         E        E           E
|------------------------------------------------------------|
|------------------------------------------------------------|
|------------------------------------------------------------|
|------------------------------------------------------------|
|---2--2------2----2--2-(2)--------6--------3-----------5----|
|---0--0------0----0--0-(0)--------4--------1-----------3----|
|
|  +E      E.    E    S  S   T  T  T  T  S  T  T  T  T  S  S
|-----------------------16--17-19-17-16----------------------|
|-(17)----17----17---17-----------------17-16-17-19-17-19-17-|
|------------------------------------------------------------|
|------------------------------------------------------------|
|------------------------------------------------------------|
|------------------------------------------------------------|


  E5                                       G#5   F5    G5
   S  E.          E    S    S    +E        E      E     E
|---------------------------------------------------------|
|---------------------------------------------------------|
|---------------------------------------------------------|
|---------------------------------------------------------|
|--2--2-----------2----2----2----(2)-------6------3-----5-|
|--0--0-----------0----0----0----(0)-------4------1-----3-|
|
|  S.     E  E       S    S    S      S  S    S.  S  S  E
|---------------------------------------------------------|
|---------------------------------------------------------|
|-16-----17-17b19---14---16---16-----18-16---14--16-14-13-|
|---------------------------------------------------------|
|---------------------------------------------------------|
|---------------------------------------------------------|


  E5               E5                      G#5        F5         G5
    S  E.  E       S     S    +E           E          E          E
|---------------------------------------------------------------------------|
|---------------------------------------------------------------------------|
|---------------------------------------------------------------------------|
|---------------------------------------------------------------------------|
|---2--2---2-------2-----2----(2)----------6----------3----------5----------|
|---0--0---0-------0-----0----(0)----------4----------1----------3----------|
|
|             |---3---|  |----3----|  |---3---|  |---3---|  |---3---|  |3-|
|  +Q      S  S  S    S  S  S      S  S  S    S  S  S    S  S  S    S  S  T
|---------18-19-21---19-18--------------------------------------------------|
|--------------------------21-----18-19-21---19-18--------------------------|
|-(13)---------------------------------------------20---17-18-20---18-17-18-|
|---------------------------------------------------------------------------|
|---------------------------------------------------------------------------|
|---------------------------------------------------------------------------|


  E5                           G#5F5    G5        E5                 G#F5G5
   S    E.  E      S     S +E   E  E    E          S E.  E   S S +E  E E E
|-----------------------------------------------|--------------------------|
|-----------------------------------------------|--------------------------|
|-----------------------------------------------|--------------------------|
|-----------------------------------------------|--------------------------|
|--2----2---2------2-----2-(2)--6--3----5-------|--2-2---2---2-2-(2)-6-3-5-|
|--0----0---0------0-----0-(0)--4--1----3-------|--0-0---0---0-0-(0)-4-1-3-|
|
|                                                        \1/
|                                                        ~~~~
|  Q        E     +Q            E  S  E    S       Q     H.
|---------------------------------21------------|--------------------------|
|------------------------------19----19---19b21-|-19----19-----------------|
|-18b20----18b20r(18)b20------------------------|--------------------------|
|-----------------------------------------------|--------------------------|
|-----------------------------------------------|--------------------------|
|-----------------------------------------------|--------------------------|


  E5              G#F5G5  E5                G#5   G5
   S E. E S S +E  E E E     S  E. E S S +E  E S S E
|-----------------------|-----------------------------||
|-----------------------|-----------------------------||
|-----------------------|-----------------------------||
|-----------------------|-----------------------------||
|--2-2--2-2-2-(2)-6-3-5-|---2--2--2-2-2-(2)-6-----5---||
|--0-0--0-0-0-(0)-4-1-3-|---0--0--0-0-0-(0)-4-0-0-3---||
|
|  W                       +H.                S S E
|-----------------------|-----------------------------||
|-18--------------------|-(18)------------------------||
|-18--------------------|-(18)------------------------||
|-----------------------|-----------------------------||
|-----------------------|-------------------------5---||
|-----------------------|---------------------0-0-3---||


   Outro
    F5E5F5E5                             F5E5F5E5            F5E5F5
                                                            1/4
    Gtrs I, II
    S S E Q  +H       +W                 S S E Q  +H      4x S S E
||------------------|-------------||-||-------------------||-------*|
||o-----------------|------------o||-||o-----------------o||-------*|
||------------------|-------------||-||-------------------||-------*|
||------------------|-------------||-||-------------------||-------*|
||o-3-2-3-2--(2)----|-(2)--------o||-||o-3-2-3-2--(2)----o||-3-2-3-*|
||--1-0-1-0--(0)----|-(0)---------||-||--1-0-1-0--(0)-----||-1-0-1-*|



Duration Legend
---------------
W - whole; H - half; Q - quarter; E - 8th; S - 16th; T - 32nd; X - 64th; a - acciaccatura
+ - note tied to previous; . - note dotted; .. - note double dotted
Uncapitalized letters represent notes that are staccato (1/2 duration)
Irregular groupings are notated above the duration line
Duration letters will always appear directly above the note/fret number it represents the
duration for.  Duration letters with no fret number below them represent rests.  Multi-
bar rests are notated in the form Wxn, where n is the number of bars to rest for.  Low
melody durations appear below the staff

Tablature Legend
----------------
 h   - hammer-on
 p   - pull-off
 b   - bend
 pb  - pre-bend
 r   - bend release (if no number after the r, then release immediately)
 /\  - slide into or out of (from/to "nowhere")
 s   - legato slide
 S   - shift slide
 - natural harmonic
[n]  - artificial harmonic
n(n) - tapped harmonic
 ~   - vibrato
 tr  - trill
 T   - tap
 TP  - trem. picking
 PM  - palm muting
\n/  - tremolo bar dip; n = amount to dip
 \n  - tremolo bar down
 n/  - tremolo bar up
/n\  - tremolo bar inverted dip
 =   - hold bend; also acts as connecting device for hammers/pulls
 <> - volume swell (louder/softer)
 x   - on rhythm slash represents muted slash
 o   - on rhythm slash represents single note slash

Misc Legend
-----------
 |  - bar
||  - double bar
||o - repeat start
o|| - repeat end
*|  - double bar (ending)
 :  - bar (freetime)
 $  - Segno
 &  - Coda
Tempo markers -  = BPM(8/16=s8/s16), where s8 = swing 8ths, s16 = swing 16ths

Tap to rate this tab
# A B C D E F G H I J K L M N O P Q R S T U V W X Y Z