Guitaretab - guitar tabs
Song name
# A B C D E F G H I J K L M N O P Q R S T U V W X Y Z

Slayer - Seven Faces tab

solo
    wah                bar
Eb|---------------------------------------------------------4-5-4-5-7-5-4|
Bb|17b17b17b-------------17b--17b----------------------------------------|
F#|17b17b17b-15~~~--0---17b--17b---0h12p0h12p0h12p0--14b~~---------------|
C#|----------------------------------------------------------------------|
G#|----------------------------------------------------------------------|
C#|----------------------------------------------------------------------|

[ Tab from: http://www.guitaretab.com/s/slayer/43692.html ]
                              bar
Eb|----7-8-7-8-10-8-7-------------------------------------------------------|
Bb|7/9----------------10-8-7----0h7p0h7p0h7p0h7p0h7p0h7p0h7p0--7/12--12AH---|
F#|---------------------------0---------------------------------------------|
C#|-------------------------------------------------------------------------|
G#|-------------------------------------------------------------------------|
C#|-------------------------------------------------------------------------|


    bend slowly   bar
Eb|-------------------|
Bb|12b----------------|
F#|----------------0--|
C#|-------------------|
G#|-------------------|
C#|-------------------|


   intro
Eb|----------------------------------|
Bb|----------------------------------|
F#|-----0------------0---------------|
C#|--------0------------0------------|
G#|-----------6------------6--5------|
C#|--0------------0------------------|
Related for Seven Faces tab
Advertisement will be closed in 10 seconds