Song name
# A B C D E F G H I J K L M N O P Q R S T U V W X Y Z

Slayer - Ghosts Of War tab

#----------------------------------PLEASE NOTE---------------------------------#
#This file is the author's own work and represents their interpretation of the #
#song. You may only use this file for private study, scholarship, or research. #
#------------------------------------------------------------------------------#

GHOSTS OF WAR
As recorded by Slayer
(From the 1988 Album SOUTH OF HEAVEN)

Transcribed by Fenian
	

Words by Kerry King Music by Jeff Hanneman & Kerry King

Gtr I (Eb Ab Db Gb Bb Eb) - 'Untitled'
Gtr II (Eb Ab Db Gb Bb Eb) - 'Untitled'
Gtr III (Eb Ab Db Gb Bb Eb) - 'Untitled'
Gtr IV (Eb Ab Db Gb Bb Eb) - 'Untitled'

   Intro
    Q=224
   4/4
    Gtrs I, II
      PM------|   PM------|     PM--|   PM--|
    E S S S S E E S S S S E   E S S E E S S E E E
||--------------------------|----------------------||-|
||o-------------------------|---------------------o||-|
||--------------------------|----------------------||-|
||--------------------------|-3-------2------------||-|
||o-5-----------4-----------|-----------------3---o||-|
||----2-2-2-2-2---2-2-2-2-2-|---2-2-2---2-2-2---2--||-|


      PM------|   PM------|     PM--|   PM--|
    E S S S S E E S S S S E   E S S E E S S E E E
||--------------------------|-------------------------||
||o-------------------------|------------------------o||
||--------------------------|-------------------------||
||--------------------------|-3-------2---------------||
||o-5-----------4-----------|-----------------3------o||
||----2-2-2-2-2---2-2-2-2-2-|---2-2-2---2-2-2---2-----||


    PM--|     PM--|       PM--|     PM--|
    S S E E E S S E E E   S S E E E S S E E E
||----------------------|---------------------|
||o---------------------|---------------------|
||----------------------|---------------------|
||----------------------|-----------------3-2-|
||o-------3-2-------2-0-|-------3-2-------3-2-|
||--4-4-4-----4-4-4-----|-4-4-4-----4-4-4-----|


                       1.
  PM--|     PM--|       PM--|     PM--|
  S S E E E S S E E E   S S E E E S S E E E
|---------------------|------------------------||
|---------------------|-----------------------o||
|---------------------|------------------------||
|---------------------|-----------------1------||
|-------3-2-------2-0-|-------3-2---------2---o||
|-4-4-4-----4-4-4-----|-4-4-4-----4-4-4--------||


  2.
 2/4          4/4
  PM--|        PM-------------------------------
  S S E E E    S S S S S S S S S S S S S S S S
|-----------||---------------------------------|
|-----------||---------------------------------|
|-----------||---------------------------------|
|-----------||---------------------------------|
|-------3-2-||---------------------------------|
|-4-4-4-----||-3-3-3-3-3-3-3-3-3-3-3-3-3-3-3-3-|


 -------------------------------|
  S S S S S S S S S S S S S S S S   E E Q  E E Q
|---------------------------------|-----------------||
|---------------------------------|-----------------||
|---------------------------------|-----------------||
|---------------------------------|-----------------||
|---------------------------------|-2------6-5-8----||
|-3-3-3-3-3-3-3-3-3-3-3-3-3-3-3-3-|-0------4-3-6----||


 Verse
  PM----------------------------|     PM---------------------------
  S S S S S S S S S S S S S S S S   E S S S S S S S S S S S S S S
|---------------------------------|-------------------------------|
|---------------------------------|-------------------------------|
|---------------------------------|-------------------------------|
|---------------------------------|-------------------------------|
|---------------------------------|-2-----------------------------|
|-1-1-1-1-1-1-1-1-3-1-1-1-1-1-1-1-|---1-1-1-1-1-1-4-2-1-1-2-2-1-1-|


 -------------------------------|     PM------------|
  S S S S S S S S S S S S S S S S   E S S S S S S S S Q.
|---------------------------------|------------------------|
|---------------------------------|------------------------|
|---------------------------------|------------------------|
|---------------------------------|------------------------|
|---------------------------------|-2-----------------6----|
|-1-1-1-1-1-1-1-1-3-1-1-1-1-1-1-1-|---1-1-1-1-1-1-1-1-4----|


  PM----------------------------|     PM---------------------------
  S S S S S S S S S S S S S S S S   E S S S S S S S S S S S S S S
|---------------------------------|-------------------------------|
|---------------------------------|-------------------------------|
|---------------------------------|-------------------------------|
|---------------------------------|-------------------------------|
|---------------------------------|-2-----------------------------|
|-1-1-1-1-1-1-1-1-3-1-1-1-1-1-1-1-|---1-1-1-1-1-1-4-2-1-1-2-2-1-1-|


 -------------------------------|     PM--------|
  S S S S S S S S S S S S S S S S   E S S S S S S E E Q
|---------------------------------|-----------------------|
|---------------------------------|-----------------------|
|---------------------------------|-----------------------|
|---------------------------------|-----------------------|
|---------------------------------|-2-------------6-5-8---|
|-1-1-1-1-1-1-1-1-3-1-1-1-1-1-1-1-|---1-1-1-1-1-1-4-3-6---|


  PM----------------------------|     PM---------------------------
  S S S S S S S S S S S S S S S S   E S S S S S S S S S S S S S S
|---------------------------------|-------------------------------|
|---------------------------------|-------------------------------|
|---------------------------------|-------------------------------|
|---------------------------------|-------------------------------|
|---------------------------------|-2-----------------------------|
|-1-1-1-1-1-1-1-1-3-1-1-1-1-1-1-1-|---1-1-1-1-1-1-4-2-1-1-2-2-1-1-|


 -------------------------------|     PM------------|
  S S S S S S S S S S S S S S S S   E S S S S S S S S Q.
|---------------------------------|------------------------|
|---------------------------------|------------------------|
|---------------------------------|------------------------|
|---------------------------------|------------------------|
|---------------------------------|-2-----------------6----|
|-1-1-1-1-1-1-1-1-3-1-1-1-1-1-1-1-|---1-1-1-1-1-1-1-1-4----|


  PM----------------------------|     PM---------------------------
  S S S S S S S S S S S S S S S S   E S S S S S S S S S S S S S S
|---------------------------------|-------------------------------|
|---------------------------------|-------------------------------|
|---------------------------------|-------------------------------|
|---------------------------------|-------------------------------|
|---------------------------------|-2-----------------------------|
|-1-1-1-1-1-1-1-1-3-1-1-1-1-1-1-1-|---1-1-1-1-1-1-4-2-1-1-2-2-1-1-|


 -------------------------------|     PM--------|
  S S S S S S S S S S S S S S S S   E S S S S S S E E Q
|---------------------------------|-----------------------||
|---------------------------------|-----------------------||
|---------------------------------|-----------------------||
|---------------------------------|-----------------------||
|---------------------------------|-2-------------6-5-8---||
|-1-1-1-1-1-1-1-1-3-1-1-1-1-1-1-1-|---1-1-1-1-1-1-4-3-6---||


 Chorus
               PM----------------------------|
  H    Q  Q    S S S S S S S S S S S S S S S S
|------------|---------------------------------|
|------------|---------------------------------|
|------------|---------------------------------|
|------------|---------------------------------|
|-6----5--9--|---------------------------------|
|-4----3--7--|-6-6-6-6-6-6-6-6-6-6-6-6-6-6-6-6-|


               PM----------------------------|
  H    Q  Q    S S S S S S S S S S S S S S S S
|------------|-----------------------------------|
|------------|-----------------------------------|
|------------|-----------------------------------|
|------------|-----------------------------------|
|-6----5--9--|-----------------------------------|
|-4----3--7--|-6-6-6-6-6-6-6-6-6-6-6-6-6-6-6-6---|


               PM----------------------------|
  H    Q  Q    S S S S S S S S S S S S S S S S   H    Q  Q
|------------|---------------------------------|------------||
|------------|---------------------------------|------------||
|------------|---------------------------------|------------||
|------------|---------------------------------|------------||
|-6----5--9--|---------------------------------|-6----5--9--||
|-4----3--7--|-6-6-6-6-6-6-6-6-6-6-6-6-6-6-6-6-|-4----3--7--||


  PM----------------------------|     PM---------------------------
  S S S S S S S S S S S S S S S S   E S S S S S S S S S S S S S S
|---------------------------------|-------------------------------|
|---------------------------------|-------------------------------|
|---------------------------------|-------------------------------|
|---------------------------------|-------------------------------|
|---------------------------------|-2-----------------------------|
|-1-1-1-1-1-1-1-1-3-1-1-1-1-1-1-1-|---1-1-1-1-1-1-4-2-1-1-2-2-1-1-|


 -------------------------------|     PM--------|
  S S S S S S S S S S S S S S S S   E S S S S S S E E Q
|---------------------------------|-----------------------||
|---------------------------------|-----------------------||
|---------------------------------|-----------------------||
|---------------------------------|-----------------------||
|---------------------------------|-2-------------6-5-8---||
|-1-1-1-1-1-1-1-1-3-1-1-1-1-1-1-1-|---1-1-1-1-1-1-4-3-6---||


 Verse
  PM----------------------------|     PM---------------------------
  S S S S S S S S S S S S S S S S   E S S S S S S S S S S S S S S
|---------------------------------|-------------------------------|
|---------------------------------|-------------------------------|
|---------------------------------|-------------------------------|
|---------------------------------|-------------------------------|
|---------------------------------|-2-----------------------------|
|-1-1-1-1-1-1-1-1-3-1-1-1-1-1-1-1-|---1-1-1-1-1-1-4-2-1-1-2-2-1-1-|


 -------------------------------|     PM------------|
  S S S S S S S S S S S S S S S S   E S S S S S S S S Q.
|---------------------------------|------------------------|
|---------------------------------|------------------------|
|---------------------------------|------------------------|
|---------------------------------|------------------------|
|---------------------------------|-2-----------------6----|
|-1-1-1-1-1-1-1-1-3-1-1-1-1-1-1-1-|---1-1-1-1-1-1-1-1-4----|


  PM----------------------------|     PM---------------------------
  S S S S S S S S S S S S S S S S   E S S S S S S S S S S S S S S
|---------------------------------|-------------------------------|
|---------------------------------|-------------------------------|
|---------------------------------|-------------------------------|
|---------------------------------|-------------------------------|
|---------------------------------|-2-----------------------------|
|-1-1-1-1-1-1-1-1-3-1-1-1-1-1-1-1-|---1-1-1-1-1-1-4-2-1-1-2-2-1-1-|


 -------------------------------|     PM--------|
  S S S S S S S S S S S S S S S S   E S S S S S S E E Q
|---------------------------------|-----------------------|
|---------------------------------|-----------------------|
|---------------------------------|-----------------------|
|---------------------------------|-----------------------|
|---------------------------------|-2-------------6-5-8---|
|-1-1-1-1-1-1-1-1-3-1-1-1-1-1-1-1-|---1-1-1-1-1-1-4-3-6---|


  PM----------------------------|     PM---------------------------
  S S S S S S S S S S S S S S S S   E S S S S S S S S S S S S S S
|---------------------------------|-------------------------------|
|---------------------------------|-------------------------------|
|---------------------------------|-------------------------------|
|---------------------------------|-------------------------------|
|---------------------------------|-5-----------------------------|
|-4-4-4-4-4-4-4-4-6-4-4-4-4-4-4-4-|---4-4-4-4-4-4-7-5-4-4-5-5-4-4-|


 -------------------------------|     PM------------|
  S S S S S S S S S S S S S S S S   E S S S S S S S S  Q.
|---------------------------------|-------------------------|
|---------------------------------|-------------------------|
|---------------------------------|-------------------------|
|---------------------------------|-------------------------|
|---------------------------------|-5-----------------10----|
|-4-4-4-4-4-4-4-4-6-4-4-4-4-4-4-4-|---4-4-4-4-4-4-4-4--8----|


  PM----------------------------|     PM---------------------------
  S S S S S S S S S S S S S S S S   E S S S S S S S S S S S S S S
|---------------------------------|-------------------------------|
|---------------------------------|-------------------------------|
|---------------------------------|-------------------------------|
|---------------------------------|-------------------------------|
|---------------------------------|-5-----------------------------|
|-4-4-4-4-4-4-4-4-6-4-4-4-4-4-4-4-|---4-4-4-4-4-4-7-5-4-4-5-5-4-4-|


 -------------------------------|     PM--------|
  S S S S S S S S S S S S S S S S   E S S S S S S E E Q
|---------------------------------|-----------------------||
|---------------------------------|-----------------------||
|---------------------------------|-----------------------||
|---------------------------------|-----------------------||
|---------------------------------|-5-------------7-6-9---||
|-4-4-4-4-4-4-4-4-6-4-4-4-4-4-4-4-|---4-4-4-4-4-4-5-4-7---||


 Chorus
               PM----------------------------|
  H    Q  Q    S S S S S S S S S S S S S S S S
|------------|---------------------------------|
|------------|---------------------------------|
|------------|---------------------------------|
|------------|---------------------------------|
|-6----5--9--|---------------------------------|
|-4----3--7--|-6-6-6-6-6-6-6-6-6-6-6-6-6-6-6-6-|


               PM----------------------------|
  H    Q  Q    S S S S S S S S S S S S S S S S
|------------|-----------------------------------|
|------------|-----------------------------------|
|------------|-----------------------------------|
|------------|-----------------------------------|
|-6----5--9--|-----------------------------------|
|-4----3--7--|-6-6-6-6-6-6-6-6-6-6-6-6-6-6-6-6---|


               PM----------------------------|
  H    Q  Q    S S S S S S S S S S S S S S S S   H    Q  Q
|------------|---------------------------------|-------------------||
|------------|---------------------------------|-------------------||
|------------|---------------------------------|-------------------||
|------------|---------------------------------|-------------------||
|-6----5--9--|---------------------------------|-6----5--9---------||
|-4----3--7--|-6-6-6-6-6-6-6-6-6-6-6-6-6-6-6-6-|-4----3--7---------||
|
| Gtr III
| W            W                                 H    Q  E.  S
|------------|---------------------------------|-------------------||
|------------|---------------------------------|------------15b18==||
|------------|---------------------------------|-------------------||
|------------|---------------------------------|-------------------||
|------------|---------------------------------|-------------------||
|------------|---------------------------------|-------------------||


 Guitar Solo
    PM--------------------------------------------------------
    S  S S S   S  S S   S    S     S   S       S   S  S  S S
|------------------------------------------------------------|
|------------------------------------------------------------|
|------------------------------------------------------------|
|------------------------------------------------------------|
|------------------------------------------------------------|
|---3--3-3-3---3--3-3---3----4-----4---3-------3---3--3--3-3-|
|
|  +Q         +E.      +S   +E        +S      +S   S  E.
|------------------------------------------------------------|
|-(15)-------(15)-----(15)r(15)b18---(15)b17r(15)-15p12------|
|------------------------------------------------------------|
|------------------------------------------------------------|
|------------------------------------------------------------|
|------------------------------------------------------------|


 ----------------------------|
   S  S  S S  S  S  S S   S  S Q.
|----------------------------------------|
|----------------------------------------|
|----------------------------------------|
|----------------------------------------|
|------------------------------9---------|
|--3--3--3-3--3--3--3-3---3--3-7---------|
|
|                   ~~~~~~~~~
|  S  S  E    S  S  E    +Q        +Q
|----------------------------------------|
|-15-12------15-15-----------------------|
|-------14---------14---(14)------(14)\--|
|----------------------------------------|
|----------------------------------------|
|----------------------------------------|


   PM------------------------------------------------------------|
   S S  S S  S  S  S S  S  S  S  S  S S  S S    S S  S S  S S  S S Q  Q
|--------------------------------------------|---------------------------|
|--------------------------------------------|---------------------------|
|--------------------------------------------|---------------------------|
|--------------------------------------------|---------------------------|
|--------------------------------------------|---------------------8--6--|
|--3-3--3-3--3--3--3-3--4--4--3--3--3-3--3-3-|--3-3--3-3--3-3--3-3-6--4--|
|
|                                                                  ~
|  E    E    S  S  E    S  S  S  S  E    E      E    E    E    E   H
|--------------------------------------------|---------------------------|
|--------------------------------------------|---------------------------|
|-11---12---14p12----------------------------|---------------------------|
|-----------------14---11h12-11h12-11--------|---------------------------|
|---------------------------------------14---|-11---12---14---11---8-----|
|--------------------------------------------|---------------------------|


   PM----------------------------------------------
   S  S  S  S  S  S  S  S  S  S  S  S  S  S  S  S
|-------------------------------------------------|
|-------------------------------------------------|
|-------------------------------------------------|
|-------------------------------------------------|
|-------------------------------------------------|
|--3--3--3--3--3--3--3--3--4--4--3--3--3--3--3--3-|
|
|  PM----------------------------------------------
|  S  S  S  S  S  S  S  S  S  S  S  S  S  S  S  S
|-------------------------------------------------|
|-------------------------------------------------|
|-------------------------------------------------|
|-------------------------------12-12----12-12-14-|
|-------12-12-14-14-12-14-14-14-------14----------|
|-14-14-------------------------------------------|


 ----------------------------|
   S  S  S  S  S  S  S  S  S S    Q.
|----------------------------------------------------|
|----------------------------------------------------|
|----------------------------------------------------|
|----------------------------------------------------|
|---------------------------------9------------------|
|--3--3--3--3--3--3--3--3--3-3----7------------------|
|
|----------------------|
|                          |----3-----|
|  S  S  S  S  S  S  S  S  E    E     E  S  S  S  S
|----------------------------------------------------|
|---------------------------------------15-15-15-15--|
|----12----12-------------15---17----15-15-15-15-15--|
|-14----14----15-15-17-17----------------------------|
|----------------------------------------------------|
|----------------------------------------------------|


   PM------------------------------------------
   S  S S S S S  S    S   S  S  S   S S S S S
|---------------------------------------------|
|---------------------------------------------|
|---------------------------------------------|
|---------------------------------------------|
|---------------------------------------------|
|--3--3-3-3-3-3--3----3---4--4--3---3-3-3-3-3-|
|
|                               \1/
|  Q.            E       +E     Q.
|---------------------------------------------|
|-17------------17b18---(17)---15-------------|
|-17------------17b19---(17)---15-------------|
|---------------------------------------------|
|---------------------------------------------|
|---------------------------------------------|


 --------------------------|
    S  S   S   S S S   S   S  Q   Q
|------------------------------------------|
|------------------------------------------|
|------------------------------------------|
|------------------------------------------|
|-----------------------------8---6--------|
|---3--3---3---3-3-3---3---3--6---4--------|
|
|          \1/         \1/
|  +E     +Q          +E      Q.      S  S
|------------------------------------------|
|-(15)---(15)--------(15)---------------19-|
|-(15)---(15)--------(15)----17-----/20----|
|------------------------------------------|
|------------------------------------------|
|------------------------------------------|


   PM------------------------------------------------------
   S     S   S  S S S  S     S   S   S  S S  S    S  S  S
|---------------------------------------------------------|
|---------------------------------------------------------|
|---------------------------------------------------------|
|---------------------------------------------------------|
|---------------------------------------------------------|
|--3-----3---3--3-3-3--3-----3---4---4--3-3--3----3--3--3-|
|
|  E        +Q         E        +S   S  E    E       S  S
|--------------------------------------18-----------18-18-|
|-21b23====(21)-------21b23====(21)-21------21b23---------|
|---------------------------------------------------------|
|---------------------------------------------------------|
|---------------------------------------------------------|
|---------------------------------------------------------|


 ----------------------------------------|
   S    S S  S       S  S  S  S       S  S  Q.
|-------------------------------------------------------|
|-------------------------------------------------------|
|-------------------------------------------------------|
|-------------------------------------------------------|
|-------------------------------------------9-----------|
|--3----3-3--3-------3--3--3--3-------3--3--7-----------|
|
|  E.        S      +E     S  S      +E     S   S  E  E
|----------------------------------------------------18-|
|-21b23-----21b23==(21)---21-21b23==(21)---21--21-21----|
|-------------------------------------------------------|
|-------------------------------------------------------|
|-------------------------------------------------------|
|-------------------------------------------------------|


   PM-------------------------------------------
   S  S  S S  S  S  S  S  S S  S  S  S S  S  S
|----------------------------------------------|
|----------------------------------------------|
|----------------------------------------------|
|----------------------------------------------|
|----------------------------------------------|
|--3--3--3-3--3--3--3--3--4-4--3--3--3-3--3--3-|
|
|  S  S  E    S  S  S  S  E    S  S  E    S  S
|-18h21p18------18-18h21p18------18h21---18-18-|
|------------21---------------21---------------|
|----------------------------------------------|
|----------------------------------------------|
|----------------------------------------------|
|----------------------------------------------|


 --------------------------|
   S S  S  S  S       S  S S   Q        Q
|--------------------------------------------|
|--------------------------------------------|
|--------------------------------------------|
|--------------------------------------------|
|------------------------------8--------6----|
|--3-3--3--3--3-------3--3-3---6--------4----|
|
|                     ~~~~~~~~~~~~
|  E    S  S  S      +E.      +E   +Q      E
|-----------------------------------------12-|
|-18---21-18-21b23==(21)-----(21)-(21)\------|
|--------------------------------------------|
|--------------------------------------------|
|--------------------------------------------|
|--------------------------------------------|


   PM---------------------------------------------
   S S  S  S  S  S     S S  S  S  S S  S  S  S S
|------------------------------------------------|
|------------------------------------------------|
|------------------------------------------------|
|------------------------------------------------|
|------------------------------------------------|
|--3-3--3--3--3--3-----3-3--4--4--3-3--3--3--3-3-|
|
|  E    S  S  S  T  T  E    S  S  E    S  S  E
|-15---13-12-15p13p12----------------------------|
|---------------------15---12-13-12--------------|
|-------------------------------------14-12-11---|
|------------------------------------------------|
|------------------------------------------------|
|------------------------------------------------|


 ---------------------------|
   S  S S S S S   S  S   S  S Q.
|---------------------------------------|
|---------------------------------------|
|---------------------------------------|
|---------------------------------------|
|-----------------------------9---------|
|--3--3-3-3-3-3---3--3---3--3-7---------|
|
|                 ~~~~~~~~~~
|  Q.            +E     +Q.        +E
|---------------------------------------|
|-12------------(12)---(12)-------(12)\-|
|-12------------(12)---(12)-------(12)\-|
|---------------------------------------|
|---------------------------------------|
|---------------------------------------|


  PM---------------------------------------------------------|
  S    S S S S S S S S S S S S S  S     S     S  S S S S S S S Q  Q
|-----------------------------------------|------------------------------||
|-----------------------------------------|------------------------------||
|-----------------------------------------|------------------------------||
|-----------------------------------------|------------------------------||
|-----------------------------------------|--------------------8--6------||
|-3----3-3-3-3-3-3-3-4-4-3-3-3-3--3-----3-|---3--3-3-3-3-3-3-3-6--4------||
|
| \1.5                            \1.5/
|                                             ~~~~
| H..                             E          +W
|-----------------------------------------|------------------------------||
|-----------------------------------------|------------------------------||
|-0------------------------------17-------|-(17)-------------------------||
|-----------------------------------------|------------------------------||
|-----------------------------------------|------------------------------||
|-----------------------------------------|------------------------------||
|
| Gtr IV
|                                                                     T
| W                                           H                Q  E.  S
|-----------------------------------------|--------------------------22p=||
|-----------------------------------------|------------------------------||
|-----------------------------------------|------------------------------||
|-----------------------------------------|------------------------------||
|-----------------------------------------|------------------------------||
|-----------------------------------------|------------------------------||


  Gtrs I, II
   PM------------------------------------------|
   S  S  S  S  S  S  S  S  S  S  S  S  S  S  S  S
|-------------------------------------------------|
|-------------------------------------------------|
|-------------------------------------------------|
|-------------------------------------------------|
|-------------------------------------------------|
|--1--1--1--1--1--1--1--1--3--1--1--1--1--1--1--1-|
|
| Gtr IV
|     T     T     T     T     T     T     T     T
|  S  S  S  S  S  S  S  S  S  S  S  S  S  S  S  S
|-17h22p17h22p17h22p17h22p17h22p17h22p17h22p17h22p|
|-------------------------------------------------|
|-------------------------------------------------|
|-------------------------------------------------|
|-------------------------------------------------|
|-------------------------------------------------|


         PM-----------------------------------|
   E     S  S  S  S  S  S  S  S  S  S  S  S S S
|------------------------------------------------|
|------------------------------------------------|
|------------------------------------------------|
|------------------------------------------------|
|--2---------------------------------------------|
|--------1--1--1--1--1--1--4--2--1--1--2--2-1-1--|
|
|     T     T     T     T     T     T
|  S  S  S  S  S  S  S  S  S  S  S  S  Q
|-19h22p19h22p19h22p19h22p19h22p19h22p19\--------|
|------------------------------------------------|
|------------------------------------------------|
|------------------------------------------------|
|------------------------------------------------|
|------------------------------------------------|


   PM------------------------------------------|
   S S  S S  S  S     S  S  S  S S  S  S  S  S S
|------------------------------------------------|
|------------------------------------------------|
|------------------------------------------------|
|------------------------------------------------|
|------------------------------------------------|
|--1-1--1-1--1--1-----1--1--3--1-1--1--1--1--1-1-|
|
|                                         ~~~~~~~~
|  E    E    S  S     S  S  S  E    S  S  E.
|-22---19----------------------------------------|
|-----------22-22b24-19----20-20---20-20-20------|
|-----------------------21-----------------------|
|------------------------------------------------|
|------------------------------------------------|
|------------------------------------------------|


       PM-----------------|
    E  S S S S  S S   S   S Q.
|------------------------------------|
|------------------------------------|
|------------------------------------|
|------------------------------------|
|---2-----------------------6--------|
|------1-1-1-1--1-1---1---1-4--------|
|
|~~~~~~
|  +Q.          E    +Q.         S S
|-------------------------------10-9-|
|-(20)---------20---(20)\------------|
|--------------21---(21)\------------|
|------------------------------------|
|------------------------------------|
|------------------------------------|


   PM---------------------------------|       PM---------------------------|
   S S  S S  S  S S S  S  S S S S S S S    E  S S S S S S S S S S  S   S S S
|---------------------------------------|------------------------------------|
|---------------------------------------|------------------------------------|
|---------------------------------------|------------------------------------|
|---------------------------------------|------------------------------------|
|---------------------------------------|--2---------------------------------|
|--1-1--1-1--1--1-1-1--3--1-1-1-1-1-1-1-|-----1-1-1-1-1-1-4-2-1-1--2---2-1-1-|
|
|                                                 ~~~~~~~~~~
|  E    S S  S  S S S  S  S E   S S S S    Q      Q       Q       +Q
|-12---10-9-12-10-9-9-------9-----------|------------------------------------|
|---------------------12-11-----8p7-8p7-|---------8-------8-------(8)\-------|
|---------------------------------------|-[9]--------------------------------|
|---------------------------------------|------------------------------------|
|---------------------------------------|------------------------------------|
|---------------------------------------|------------------------------------|


  PM------------------------------|         PM--------|
  S S S S S S S S S S S S S S  S  S     E   S S S S S S E E Q
|-----------------------------------|---------------------------|
|-----------------------------------|---------------------------|
|-----------------------------------|---------------------------|
|-----------------------------------|---------------------------|
|-----------------------------------|---2---------------6-5-8---|
|-1-1-1-1-1-1-1-1-3-1-1-1-1-1--1--1-|-------1-1-1-1-1-1-4-3-6---|
|
|                              ~~~~~~~~~~~~~
| S S S S E   S S E   S S S S  E       +H.                  E E
|-----------------------------------|---------------------------|
|-----------------------------------|---------------------------|
|---4-5-7-5---4-4-------------------|-------------------------0-|
|-7---------------7---5-5-4-4-------|-----------------------0---|
|-----------------------------[7]---|-([7])---------------------|
|-----------------------------------|---------------------------|


  PM----------------------------|       PM------------------------|
  S S S S S S S S S S S S S S S S   E   S S S S S S S S S S S S S S
|---------------------------------|----------------------------------|
|---------------------------------|----------------------------------|
|---------------------------------|----------------------------------|
|---------------------------------|----------------------------------|
|---------------------------------|-2--------------------------------|
|-1-1-1-1-1-1-1-1-3-1-1-1-1-1-1-1-|-----1-1-1-1-1-1-4-2-1-1-2-2-1-1--|
|
| PM--------------------------------------------------------------|
| S S S S S S E   S S S S S S S S   S S S S S S S S S S S S S S S S
|---------------------------------|----------------------------------|
|---------------------------------|----------------------------------|
|-4-7-5-4-4-5-4---7-5-4-4-5-4-4-7-|-5-4-4-5-5-4-4-7-7-5-4-4-7-5-4-4--|
|---------------------------------|----------------------------------|
|---------------------------------|----------------------------------|
|---------------------------------|----------------------------------|


  PM-----------------------------|      PM--------------|
  S S S S S S S S S S S S S  S S S    E S S S S S S  S  S Q.
|----------------------------------|---------------------------|
|----------------------------------|---------------------------|
|----------------------------------|---------------------------|
|----------------------------------|---------------------------|
|----------------------------------|--2-------------------6----|
|-1-1-1-1-1-1-1-1-3-1-1-1-1--1-1-1-|----1-1-1-1-1-1--1--1-4----|
|
| PM--------------------|
| S S S S S S S S S S S S Q           H              H
|----------------------------------|---------------------------|
|----------------------------------|---------------------------|
|-5-8-6-5-6-6-8-6-6-9-7-6-7\-------|-11S============18\--------|
|----------------------------------|---------------------------|
|----------------------------------|---------------------------|
|----------------------------------|---------------------------|


   PM-------------------------------------------------------|
   S S    S    S  S S    S    S  S S    S    S  S S    S    S
|-------------------------------------------------------------|
|-------------------------------------------------------------|
|-------------------------------------------------------------|
|-------------------------------------------------------------|
|-------------------------------------------------------------|
|--1-1----1----1--1-1----1----1--3-1----1----1--1-1----1----1-|
|
|  |----3----|    |----3----|    |----3----|    |----3----|
|  E    E    E    E    E    E    E    E    E    E    E    E
|-15---13---11------------------16---14---12------------------|
|----------------14---12---10------------------15---13---11---|
|-------------------------------------------------------------|
|-------------------------------------------------------------|
|-------------------------------------------------------------|
|-------------------------------------------------------------|


        PM------------------------------------------------|
   E    S    S  S S    S    S  S S    S    S  S S    S    S
|------------------------------------------------------------|
|------------------------------------------------------------|
|------------------------------------------------------------|
|------------------------------------------------------------|
|--2---------------------------------------------------------|
|-------1----1--1-1----1----1--4-2----1----1--2-2----1----1--|
|
|  |---3---|    |----3----|    |----3----|    |----3----|
|  E  E    E    E    E    E    E    E    E    E    E    E
|-19-17---15------------------20---18---16-------------------|
|--------------18---16---14------------------19---17---15----|
|------------------------------------------------------------|
|------------------------------------------------------------|
|------------------------------------------------------------|
|------------------------------------------------------------|


   PM------------------------------------|       PM--------|
   S     S S S S S S S   S   S S S S S S S    E  S S S S S S E E Q
|------------------------------------------|------------------------||
|------------------------------------------|------------------------||
|------------------------------------------|------------------------||
|------------------------------------------|------------------------||
|------------------------------------------|--2--------------6-5-8--||
|--1-----1-1-1-1-1-1-1---3---1-1-1-1-1-1-1-|-----1-1-1-1-1-1-4-3-6--||
|
|  H                    +Q.            E      W
|-20b22================(20)\---------------|------------------------||
|------------------------------------------|------------------------||
|--------------------------------------2---|-[2]--------------------||
|------------------------------------------|------------------------||
|------------------------------------------|------------------------||
|------------------------------------------|------------------------||


 Guitar Break
  Q=192
  Gtr I
  PM    PM    PM-----|         PM|   ~~~~
  E E E E E E E E     E   E E  E E E Q
|-----------------||--------------------|
|-----------------||--------------------|
|-----------------||--------------------|
|---7-8---8-7-----||-----10-9------9-8--|
|-0-----0-----8-7-||--0-------10-9------|
|-----------------||--------------------|
|
| Gtr II
| W                  +W
|-----------------||--------------------|
|-----------------||--------------------|
|-----------------||--------------------|
|-----------------||--------------------|
|-7---------------||-(7)----------------|
|-5---------------||-(5)----------------|


 ~~~~~~~~~~~~~~~~~~~~~~~~~
  +W                  +W
|-------------------|---------------------|
|-------------------|---------------------|
|-------------------|---------------------|
|-(8)---------------|-(8)-----------------|
|-------------------|---------------------|
|-------------------|---------------------|
|
|  PM     PM    PM----|         PM    ~
|  E  E E E E E E E    E   E E  E E E Q
|-------------------|---------------------|
|-------------------|---------------------|
|-------------------|---------------9-8---|
|-----7-8---8-7-----|-----10-9----9-------|
|--0------0-----8-7-|--0-------10---------|
|-------------------|---------------------|


   PM     PM    PM----|         PM|   ~~~~
   E  E E E E E E E    E   E E  E E E Q
|-------------------|--------------------|
|-------------------|--------------------|
|-------------------|--------------------|
|-----7-8---8-7-----|-----10-9------9-8--|
|--0------0-----8-7-|--0-------10-9------|
|-------------------|--------------------|
|
|  ~~~~~~~~~~~~~~~~~~~~~~~
| +W                  +W
|-------------------|--------------------|
|-------------------|--------------------|
|-(8)---------------|-(8)----------------|
|-------------------|--------------------|
|-------------------|--------------------|
|-------------------|--------------------|


 ~~~~~
  +W                  W
|-------------------|--------------------|
|-------------------|--------------------|
|-------------------|--------------------|
|-(8)---------------|--------------------|
|-------------------|--------------------|
|-------------------|-x\-----------------|
|
|  PM     PM    PM----|        PM    ~
|  E  E E E E E E E   E   E E  E E E Q
|-------------------|--------------------|
|-------------------|--------------------|
|-------------------|--------------9-8---|
|-----7-8---8-7-----|----10-9----9-------|
|--0------0-----8-7-|-0-------10---------|
|-------------------|--------------------|


  PM    PM    PM----|         PM|    ~~
  E E E E E E E E    E   E E  E E E  Q
|-----------------|---------------------|
|-----------------|---------------------|
|-----------------|---------------------|
|---7-8---8-7-----|-----10-9------9--8--|
|-0-----0-----8-7-|--0-------10-9-------|
|-----------------|---------------------|
|
| W                 +H.              Q
|-----------------|---------------------|
|-----------------|---------------------|
|-----------------|---------------------|
|-----------------|---------------------|
|-7---------------|-(7)-------------10--|
|-5---------------|-(5)--------------8--|


  PM    PM    PM----|         PM     ~~
  E E E E E E E E    E   E E  E E E  Q
|-----------------|----------------------|
|-----------------|----------------------|
|-----------------|---------------9--8---|
|---7-8---8-7-----|-----10-9----9--------|
|-0-----0-----8-7-|--0-------10----------|
|-----------------|----------------------|
|
| W                 +H.              Q
|-----------------|----------------------|
|-----------------|----------------------|
|-----------------|----------------------|
|-----------------|----------------------|
|-6---------------|-(6)-------------10---|
|-4---------------|-(4)--------------8---|


  PM    PM    PM----|         PM|    ~~   PM    PM    PM----|        PM    ~
  E E E E E E E E    E   E E  E E E  Q    E E E E E E E E   E   E E  E E E Q
|-----------------|---------------------|-----------------|--------------------|
|-----------------|---------------------|-----------------|--------------------|
|-----------------|---------------------|-----------------|--------------9-8---|
|---7-8---8-7-----|-----10-9------9--8--|---7-8---8-7-----|----10-9----9-------|
|-0-----0-----8-7-|--0-------10-9-------|-0-----0-----8-7-|-0-------10---------|
|-----------------|---------------------|-----------------|--------------------|
|
| W                 +H.              Q    W                 W
|-----------------|---------------------|-----------------|--------------------|
|-----------------|---------------------|-----------------|--------------------|
|-----------------|---------------------|-----------------|--------------------|
|-----------------|---------------------|-----------------|--------------------|
|-7---------------|-(7)-------------10--|-6---------------|-x\-----------------|
|-5---------------|-(5)--------------8--|-4---------------|-x\-----------------|


   PM    PM    PM----|          PM|    ~~
   E E E E E E E E     E   E E  E E E  Q
|------------------|----------------------|
|------------------|----------------------|
|------------------|----------------------|
|----7-8---8-7-----|------10-9------9--8--|
|--0-----0-----8-7-|---0-------10-9-------|
|------------------|----------------------|
|
|  W                  +H.              Q
|------------------|----------------------|
|------------------|----------------------|
|------------------|----------------------|
|-14---------------|-(14)-------------17--|
|-12---------------|-(12)-------------15--|
|------------------|----------------------|


   PM    PM    PM----|          PM     ~~
   E E E E E E E E     E   E E  E E E  Q
|------------------|-----------------------|
|------------------|-----------------------|
|------------------|----------------9--8---|
|----7-8---8-7-----|------10-9----9--------|
|--0-----0-----8-7-|---0-------10----------|
|------------------|-----------------------|
|
|  W                  +H.              Q
|------------------|-----------------------|
|------------------|-----------------------|
|------------------|-----------------------|
|-13---------------|-(13)-------------17---|
|-11---------------|-(11)-------------15---|
|------------------|-----------------------|


   PM    PM    PM----|          PM|    ~~
   E E E E E E E E     E   E E  E E E  Q
|------------------|----------------------|
|------------------|----------------------|
|------------------|----------------------|
|----7-8---8-7-----|------10-9------9--8--|
|--0-----0-----8-7-|---0-------10-9-------|
|------------------|----------------------|
|
|  W                  +H.              Q
|------------------|----------------------|
|------------------|----------------------|
|------------------|----------------------|
|-14---------------|-(14)-------------17--|
|-12---------------|-(12)-------------15--|
|------------------|----------------------|


   PM    PM    PM----|          PM     ~~
   E E E E E E E E     E   E E  E E E  Q
|------------------|-----------------------||
|------------------|-----------------------||
|------------------|----------------9--8---||
|----7-8---8-7-----|------10-9----9--------||
|--0-----0-----8-7-|---0-------10----------||
|------------------|-----------------------||
|
|  W                  +H.              Q
|------------------|-----------------------||
|------------------|-----------------------||
|------------------|-----------------------||
|-13---------------|-(13)------------------||
|-11---------------|-(11)-------------10---||
|------------------|-------------------8---||


                  ~~~~~~~~~
  E E  E E E E E  E    +H.            Q
|--------------7-12-|-(12)-----------12--|
|------------8------|--------------------|
|----------9--------|--------------------|
|--------9----------|--------------------|
|---7-10------------|--------------------|
|-7-----------------|--------------------|
|
|      PM--------------------------|
| Q    E E E E E  E     E  E E E E E  Q
|-------------------|--------------------|
|-------------------|--------------------|
|-------------------|--------------------|
|-------------------|--------------------|
|-7----7-7-7-7-7--7-|---7--7-7-7-7-7-10--|
|-5----5-5-5-5-5--5-|---5--5-5-5-5-5--8--|


   \1.5              /
                              ~~~~~~~~~~
   Q      +E   +E   +Q.      +E     +H.            +Q
|--------------------------------|------------------------|
|-15-----(15)-(15)-(15)-----(15)-|-(15)-----------(15)\---|
|--------------------------------|------------------------|
|--------------------------------|------------------------|
|--------------------------------|------------------------|
|--------------------------------|------------------------|
|
|          PM-----------------------------------|
|  Q       E    E    E  E E   E      E  E E E E E   Q
|--------------------------------|------------------------|
|--------------------------------|------------------------|
|--------------------------------|------------------------|
|--------------------------------|------------------------|
|--6-------6----6----6--6-6---6--|---6--6-6-6-6-6--10-----|
|--4-------4----4----4--4-4---4--|---4--4-4-4-4-4---8-----|


              ~~~~~~~~~~~~~~
  E. S +E   E H         +H        E.   S +E  E
|---------------------|------------------------|
|---------------------|----------------8-(8)-8-|
|---------------------|-----------9------------|
|-------------9-------|-(9)--------------------|
|----7-(7)-10---------|------------------------|
|-7-------------------|------------------------|
|
|       PM---------------------------|
| Q     E   E E E E E    E  E E E E  E    Q
|---------------------|------------------------|
|---------------------|------------------------|
|---------------------|------------------------|
|---------------------|------------------------|
|-7-----7---7-7-7-7-7-|--7--7-7-7-7--7---10----|
|-5-----5---5-5-5-5-5-|--5--5-5-5-5--5----8----|


                         ~~~
  a  Q.    +E   Q  Q     W
|---------------------|--------------|
|-8s12----(12)\-8-----|--------------|
|------------------9--|--------------|
|---------------------|--9-----------|
|---------------------|--------------|
|---------------------|--------------|
|
|    W                  +H.      Q
|---------------------|--------------|
|---------------------|--------------|
|---------------------|--------------|
|---------------------|--------------|
|----6----------------|-(6)------3---|
|----4----------------|-(4)------1---|


                                                  ~~~~~~~~~~~~
                       |--3--|
  W          +H.       E  E  E    E   E  E  E  E  Q.      +W
|----------|-------------------|-----------------------|---------||
|----------|-------------------|-----------------17----|-(17)----||
|----------|-------------------|-----------15-18-------|---------||
|----------|-------------------|-----14-17-------------|---------||
|----------|----------------13-|-16--------------------|---------||
|-0--------|-(0)------12-15----|-----------------------|---------||
|
| W          +W                  +W                       +W
|----------|-------------------|-----------------------|---------||
|----------|-------------------|-----------------------|---------||
|----------|-------------------|-----------------------|---------||
|----------|-------------------|-----------------------|---------||
|-2--------|-(2)---------------|-(2)-------------------|--(2)----||
|-0--------|-(0)---------------|-(0)-------------------|--(0)----||


    Gtrs I, II
    PM-----------------------------------------
    S S E E E S S E E E   S S E E E S S E E E
||----------------------|---------------------|
||o---------------------|---------------------|
||----------------------|---------------------|
||----------------------|---------------------|
||o---------------------|---------------------|
||--0-0-0-0-0-0-0-0-0-0-|-0-0-0-0-0-0-0-0-0-0-|


 -----------------------------------------|
  S S E E E S S E E E   S S E E E S S E E E
|---------------------|----------------------||
|---------------------|---------------------o||
|---------------------|----------------------||
|---------------------|----------------------||
|---------------------|---------------------o||
|-0-0-0-0-0-0-0-0-0-0-|-0-0-0-0-0-0-0-0-0-0--||


 Bridge
                         PM--------------------------------------|
  W          H    H      S S E E E S S E E E   S S E E E S S E E E
|----------|-----------|---------------------|---------------------|
|----------|-----------|---------------------|---------------------|
|----------|-----------|---------------------|---------------------|
|----------|-----------|---------------------|---------------------|
|-4--------|-5----3----|---------------------|---------------------|
|-2--------|-3----1----|-0-0-0-0-0-0-0-0-0-0-|-0-0-0-0-0-0-0-0-0-0-|


                         PM--------------------------------------|
  W          H    H      S S E E E S S E E E   S S E E E S S E E E
|----------|-----------|---------------------|---------------------|
|----------|-----------|---------------------|---------------------|
|----------|-----------|---------------------|---------------------|
|----------|-----------|---------------------|---------------------|
|-4--------|-5----3----|---------------------|---------------------|
|-2--------|-3----1----|-0-0-0-0-0-0-0-0-0-0-|-0-0-0-0-0-0-0-0-0-0-|


                         PM--------------------------------------|
  W          H    H      S S E E E S S E E E   S S E E E S S E E E
|----------|-----------|---------------------|---------------------|
|----------|-----------|---------------------|---------------------|
|----------|-----------|---------------------|---------------------|
|----------|-----------|---------------------|---------------------|
|-4--------|-5----3----|---------------------|---------------------|
|-2--------|-3----1----|-0-0-0-0-0-0-0-0-0-0-|-0-0-0-0-0-0-0-0-0-0-|


                                        PM----------------|
  W          H    H      Q  Q  H        S S E E E S S E E E   12x
|----------|-----------|------------||-------------------------||
|----------|-----------|------------||o-----------------------o||
|----------|-----------|------------||-------------------------||
|----------|-----------|------------||-------------------------||
|-4--------|-5----3----|-2----------||o-----------------------o||
|-2--------|-3----1----|-0----------||--0-0-0-0-0-0-0-0-0-0----||


    Gtr I
    PM-------------------------------------------
    S S E E E S S E E E   S S  E E  E S S E E E
||----------------------|-----------------------|
||o---------------------|-----------------------|
||----------------------|-----------------------|
||----------------------|-----------------------|
||o---------------------|-----------------------|
||--0-0-0-0-0-0-0-0-0-0-|-0-0--0-0--0-0-0-0-0-0-|
|
|   Gtr II
|   PM      PM      PM----|         PM|     ~
|   E   E E E E   E E E   E    E E  E E   E Q
||----------------------|-----------------------|
||o---------------------|-----------------------|
||----------------------|-----------------------|
||----------------------|-----------------------|
||o-----7-8---8---7-----|-----10-9--------9-8---|
||--0-------0-------8-7-|-0--------10-9---------|


 -------------------------------------------|
  S S E E E S S E E E   S S  E E  E S S E E E
|---------------------|------------------------||
|---------------------|-----------------------o||
|---------------------|------------------------||
|---------------------|------------------------||
|---------------------|-----------------------o||
|-0-0-0-0-0-0-0-0-0-0-|-0-0--0-0--0-0-0-0-0-0--||
|
| PM      PM      PM----|         PM      ~
| E   E E E E   E E E   E    E E  E E   E Q
|---------------------|------------------------||
|---------------------|-----------------------o||
|---------------------|------------------------||
|---------------------|-----------------9-8----||
|-----7-8---8---7-----|-----10-9----9---------o||
|-0-------0-------8-7-|-0--------10------------||


 Outro
  Gtrs I, II
                         PM--------------------------------------|
  W          H    H      S S E E E S S E E E   S S E E E S S E E E
|----------|-----------|---------------------|---------------------|
|----------|-----------|---------------------|---------------------|
|----------|-----------|---------------------|---------------------|
|----------|-----------|---------------------|---------------------|
|-4--------|-5----3----|---------------------|---------------------|
|-2--------|-3----1----|-0-0-0-0-0-0-0-0-0-0-|-0-0-0-0-0-0-0-0-0-0-|


                         PM--------------------------------------|
  W          H    H      S S E E E S S E E E   S S E E E S S E E E
|----------|-----------|---------------------|---------------------|
|----------|-----------|---------------------|---------------------|
|----------|-----------|---------------------|---------------------|
|----------|-----------|---------------------|---------------------|
|-4--------|-5----3----|---------------------|---------------------|
|-2--------|-3----1----|-0-0-0-0-0-0-0-0-0-0-|-0-0-0-0-0-0-0-0-0-0-|


                         PM--------------------------------------|
  W          H    H      S S E E E S S E E E   S S E E E S S E E E
|----------|-----------|---------------------|---------------------|
|----------|-----------|---------------------|---------------------|
|----------|-----------|---------------------|---------------------|
|----------|-----------|---------------------|---------------------|
|-4--------|-5----3----|---------------------|---------------------|
|-2--------|-3----1----|-0-0-0-0-0-0-0-0-0-0-|-0-0-0-0-0-0-0-0-0-0-|


  W          H    H      Q  Q  H
|----------|-----------|------------*|
|----------|-----------|------------*|
|----------|-----------|------------*|
|----------|-----------|------------*|
|-4--------|-5----3----|-2----------*|
|-2--------|-3----1----|-0----------*|



Duration Legend
---------------
W - whole; H - half; Q - quarter; E - 8th; S - 16th; T - 32nd; X - 64th; a - acciaccatura
+ - note tied to previous; . - note dotted; .. - note double dotted
Uncapitalized letters represent notes that are staccato (1/2 duration)
Irregular groupings are notated above the duration line
Duration letters will always appear directly above the note/fret number it represents the
duration for.  Duration letters with no fret number below them represent rests.  Multi-
bar rests are notated in the form Wxn, where n is the number of bars to rest for.  Low
melody durations appear below the staff

Tablature Legend
----------------
 h   - hammer-on
 p   - pull-off
 b   - bend
 pb  - pre-bend
 r   - bend release (if no number after the r, then release immediately)
 /\  - slide into or out of (from/to "nowhere")
 s   - legato slide
 S   - shift slide
 - natural harmonic
[n]  - artificial harmonic
n(n) - tapped harmonic
 ~   - vibrato
 tr  - trill
 T   - tap
 TP  - trem. picking
 PM  - palm muting
\n/  - tremolo bar dip; n = amount to dip
 \n  - tremolo bar down
 n/  - tremolo bar up
/n\  - tremolo bar inverted dip
 =   - hold bend; also acts as connecting device for hammers/pulls
 <> - volume swell (louder/softer)
 x   - on rhythm slash represents muted slash
 o   - on rhythm slash represents single note slash

Misc Legend
-----------
 |  - bar
||  - double bar
||o - repeat start
o|| - repeat end
*|  - double bar (ending)
 :  - bar (freetime)
 $  - Segno
 &  - Coda
Tempo markers -  = BPM(8/16=s8/s16), where s8 = swing 8ths, s16 = swing 16ths

Tap to rate this tab
# A B C D E F G H I J K L M N O P Q R S T U V W X Y Z