Song name
# A B C D E F G H I J K L M N O P Q R S T U V W X Y Z

Slayer - Hardening Of The Arteries tab

Band- Slayer
Song- Hardening Of The Arteries

Main riff                               Chords behind
1||-------------------|------------------||---------|---------||
2||-------------------|------------------||---------|---------||
3||-------------------|------------------||---------|---------||
4||-------------------|------------------||---------|---------||
5||-3p24-------3------|---2--------------||-4---4---|-4---4---||
6||------22223---2222-|-3---2222220-2222-||-2---2---|-2---2---||

   Verse                                Final time          Pre chorus
1||-----------------|-----------------||-----------------||------------------|
2||-----------------|-----------------||-----------------||------------------|
3||-----------------|-----------------||-----------------||------------------|
4||-----------------|-----------------||-----------------||------------------|
5||---------4---5---|---------5---8---||---------5---4---||------------------|
6||-000000002-0-3---|-000000003-0-6---||-000000003-0-2---||-3333333333333333-|

                                                               Final Time
1||------------------|------------------|------------------||------------------||
2||------------------|------------------|------------------||------------------||
3||------------------|------------------|------------------||------------------||
4||------------------|------------------|------------------||------------------||
5||------------------|------------------|------------------||------------------||
6||-3333333333335----|-7777777777777777-|-7777777777775----||-7777777766666666-||

                                   
1||-----------------|----------------||------------------|--------||
2||-----------------|----------------||------------------|--------||
3||-----------------|----------------||------------------|--------||
4||---------6-5---5-|----------------||------------------|--------||
5||-------------6---|--------4-3---3-||-4-------3--3--3--|-2------||
6||-33333333--------|-3333333----4---||-2-------1--1--1--|-0------||

                                             
1||--------------------||-------------------||------------------|------------------|
2||--------------------||-------------------||------------------|------------------|
3||--------------------||-------------------||------------------|------------------|
4||--------------------||-------------------||------------------|------------------|
5||--------------------||---------------3---||------------------|------------------|
6||-000000001p01p00000-||-000000001p01p01---||-1111111111111111-|-1111111111111111-|


1||------------------|-----------------||------------------||
2||------------------|-----------------||------------------||
3||------------------|-----------------||------------------||
4||------------------|-----------------||------------------||
5||------------------|-----------------||-2-------3--3--3--||
6||-2222222222222222-|-222222222-3-4---||-0-------1--1--1--||
then play intro of hell awaits until the fade out.......
Tap to rate this tab
# A B C D E F G H I J K L M N O P Q R S T U V W X Y Z