Song name
# A B C D E F G H I J K L M N O P Q R S T U V W X Y Z

Slayer - Disiple tab

Slayer- Disiple
Tuning:Db,Ab,Db,Gb,Bb,eb

Intro
|--------------------------------------------------------------------------|
|--------------------------------------------------------------------------|
|--------------------------------------------------------------------------|
|----------------------------------7---------------7--------------7--------|
|-3--0--3--6----5----0---------------6-5-------------6-5------------6-5----|
|-3--0--3--6----5----0-----000000----------000000----------000000----------|

|------------------------------------|
|------------------------------------|
|------------------------------------|
|--------7--------7------6 ----5-----|
|----------6-5-----6-5-----5-3--4-3--|
|-000000-----------------------------|

This is pretty much 100% correct.
Have fun!

Tap to rate this tab
 
# A B C D E F G H I J K L M N O P Q R S T U V W X Y Z