Guitaretab - guitar tabs
Song name
# A B C D E F G H I J K L M N O P Q R S T U V W X Y Z
Home / S / Slayer / Cult tab

Slayer - Cult tab

#----------------------------------PLEASE NOTE---------------------------------#
#This file is the author's own work and represents their interpretation of the #
#song. You may only use this file for private study, scholarship, or research. #
#------------------------------------------------------------------------------#

CULT
As recorded by Slayer
(From the 2006 Album CHRIST ILLUSION)

Transcribed by Encoder
	

Words and Music by Kerry King and Dave Lombardo
Arranged by Slayer

Gtr I (C# F# B E G# C#) - 'Untitled'
Gtr II (C# F# B E G# C#) - 'Untitled'
Gtr III (C# F# B E G# C#) - 'Untitled'
Gtr IV (C# F# B E G# C#) - 'Fill guitar- Jeff Hanneman'
Gtr V (C# F# B E G# C#) - 'Fill guitar 2 - Kerry King'

   Intro
    FAST Q=185
    N.C.
   4/4
    Gtr I
    Q  Q  Q  Q    E E Q  Q  Q    Q  Q   E  E  Q    Q  Q  Q  Q
||--------------|--------------|-----------------|--------------|
||o-------------|--------------|-----------------|--------------|
||--------------|--------------|-----------------|--------------|
||--------------|--------------|-----------------|--------------|
||o----8--7-----|-7-7-7-----8--|-7--0--10-10-10--|----8--7------|
||--0--0--0--0--|-0-0-0--0--0--|-0--0---0--0--0--|-0--0--0--0---|


                               1.,2.     3.
                                                    N.C.
                               2/4      2/4        4/4
  E E Q  Q  Q    Q  Q   Q  Q    H        H          W
|--------------|--------------|-------||--------||---------------|
|--------------|--------------|------o||--------||o--------------|
|--------------|--------------|-------||--------||---------------|
|--------------|--------------|-------||--------||---------------|
|-7-7-7-----8--|-7-----10--9--|-8----o||-8------||o--------------|
|-0-0-0--0--0--|-0--0---0--0--|-0-----||-0------||---------------|
|
| Gtrs II, III
|                                          <
|                                                         ~
| W              W              W        E Q.       Q  Q  Q  Q
|--------------|--------------|-------||--------||---------------|
|--------------|--------------|------o||--------||o--------------|
|--------------|--------------|-------||--------||---------------|
|--------------|--------------|-------||---0----||---------------|
|--------------|--------------|------o||---0----||o----8--7------|
|--------------|--------------|-------||---0----||--0--------0---|


  Gtrs II, III
      ~          ~          ~          ~           ~
  E E Q  Q  Q    Q  Q   E E Q    Q  Q  Q  Q    E E Q  Q  Q
|--------------|---------------|-------------|--------------|
|--------------|---------------|-------------|--------------|
|--------------|---------------|-------------|--------------|
|--------------|---------------|-------------|--------------|
|-7-7-7-----8--|-7-----10-9-8--|----8--7-----|-7-7-7-----8--|
|--------0-----|----0----------|-0--------0--|--------0-----|


  1.                      2.
                2/4      4/4             2/4
  Gtr III
  ~              ~~~~~~~~~~~               ~~
  Q  Q   Q  Q    H        Q  Q   Q   Q     H
|--------------|-------||---------------|-------|
|--------------|------o||---------------|-------|
|--------------|-------||---------------|-------|
|-------10--9--|-8-----||-------12--11--|-10----|
|-7------------|------o||-7-------------|-------|
|----0---------|-------||----0----------|-------|
|
| Gtr II
|                ~~~~~~~~~~~               ~~
| Q  Q   Q  Q    H        Q  Q   Q   Q     H
|--------------|-------||---------------|-------|
|--------------|------o||---------------|-------|
|--------------|-------||---------------|-------|
|--------------|-------||---------------|-------|
|-7-----10--9--|-8----o||-7-----10---9--|--8----|
|----0---------|-------||----0----------|-------|


 4/4
  Gtrs II, III
        ~           ~          ~          ~          ~           ~
  Q  Q  Q  Q    E E Q  Q  Q    Q  Q   E E Q    Q  Q  Q  Q    E E Q  Q  Q
|-------------|--------------|---------------|-------------|---------------|
|-------------|--------------|---------------|-------------|---------------|
|-------------|--------------|---------------|-------------|---------------|
|-------------|--------------|---------------|-------------|---------------|
|----8--7-----|-7-7-7-----8--|-7-----10-9-8--|----8--7-----|-7-7-7-----8---|
|-0--------0--|--------0-----|----0----------|-0--------0--|--------0------|


        G5 F#5  F5
 4/4           2/4
  Gtr II
  Q  Q  Q  Q    H
|-------------|------||
|-------------|------||
|-------------|------||
|-------------|------||
|-7-----5--4--|-3----||
|----0--3--2--|-1----||
|
| Gtr III
| Q  Q  Q  Q    H
|-------------|------||
|-------------|------||
|-------------|------||
|-------------|------||
|-7-----5--4--|-3----||
|----0--3--2--|-1----||


    E5 G5 F#5E5                     Ab5G5 E5      F#5F5
   4/4
    Gtrs II, III
             PM-------------|             PM---|
    Q  Q  Q  Q    Q  Q  E E Q    Q  Q  Q  Q    Q  Q  E E Q
||--------------|--------------|-------------|---------------|
||o-------------|--------------|-------------|---------------|
||--------------|--------------|-------------|---------------|
||--------------|--------------|-------------|---------------|
||o-2--5--4--2--|-2--2--2-2-2--|-2--6--5--2--|-2--4--3-3-3---|
||--0--3--2--0--|-0--0--0-0-0--|-0--4--3--0--|-0--2--1-1-1---|


  E5 Ab5G5 E5                     G5 F#5E5      F#5F5
           PM-------------|             PM---|
  Q  Q  Q  Q    Q  Q  E E Q    Q  Q  Q  Q    Q  Q  E E E E
|-------------|--------------|-------------|----------------||
|-------------|--------------|-------------|---------------o||
|-------------|--------------|-------------|----------------||
|-------------|--------------|-------------|----------------||
|-2--6--5--2--|-2--2--2-2-2--|-2--5--4--2--|-2--4--3-3-3-3-o||
|-0--4--3--0--|-0--0--0-0-0--|-0--3--2--0--|-0--2--1-1-1-1--||


    E5                                 F5 Ab5
    Gtr III
    S S E E S S E E S S E   E S S S E. Q  Q
||------------------------|------------------|
||o-----------------------|------------------|
||------------------------|------------------|
||------------------------|------------------|
||o-----------------------|------------3--6--|
||--0h1p0-0-0h1p0-0-0h1p0-|-0-0h3p1p0--1--4--|
|
|   Gtr II
|   q     Q     H           W
||------------------------|------------------|
||o-----------------------|------------------|
||------------------------|------------------|
||--2---------------------|------------------|
||o-2---------------------|------------------|
||--0---------------------|------------------|


                                     Ab5G5
  S S E E S S E E S S E   E S S S E. Q  Q
|-----------------------|-------------------||
|-----------------------|------------------o||
|-----------------------|-------------------||
|-----------------------|-------------------||
|-----------------------|------------6--5--o||
|-0h1p0-0-0h1p0-0-0h1p0-|-0-0h4p2p0--4--3---||
|
| W                       H          Q  Q
|-----------------------|-------------------||
|-----------------------|------------------o||
|-----------------------|-------------------||
|-----------------------|-------------------||
|-----------------------|------------6--5--o||
|-----------------------|------------4--3---||


 Verse
  $
  N.C.
  Gtrs II, III
          PM----------------------------------|
    S   S S S S S S S S S S S S S S S   E E E E S S S S Q
|-------------------------------------|------------------------|
|-------------------------------------|------------------------|
|-------------------------------------|------------------------|
|-------------------------------------|------------------------|
|-------------------------------------|---------1p0------------|
|---1p==0-0-0-0-0-0-0-0-0-0-0-0-0-0-0-|-0-1-3-4-----3p0-3b3.5--|
|
| Gtr IV
|   H.                        Q         W
|-------------------------------------|------------------------|
|-(15)--------------------------------|------------------------|
|-(14)\-------------------------------|------------------------|
|-------------------------------------|------------------------|
|-------------------------------------|------------------------|
|-------------------------------------|------------------------|


                                          F#5    G5     F#5
                                   5/4
  S S S S S S S S S S S S S S S S   E S S Q  S S Q  S S Q
|---------------------------------|------------------------|
|---------------------------------|------------------------|
|---------------------------------|------------------------|
|---------------------------------|------------------------|
|---------------------------------|-------4------5------4--|
|-1p0-0-0-0-0-0-0-0-0-0-0-0-0-0-0-|-0-1p0-2--1p0-3--1p0-2--|


  N.C.
 4/4
  Gtrs II, III
      PM---------------------------
  S S S S S S S S S S S S S S S S
|---------------------------------|
|---------------------------------|
|---------------------------------|
|---------------------------------|
|---------------------------------|
|-1p0-0-0-0-0-0-0-0-0-0-0-0-0-0-0-|


 -------|                      PM------------------------|
  E E E E S S S S Q        S S S S S S S S S S S S S S S S
|------------------------|----------------------------------|
|------------------------|----------------------------------|
|------------------------|----------------------------------|
|------------------------|----------------------------------|
|---------1p0------------|----------------------------------|
|-0-1-3-4-----3p0-3b3.5--|-1p0-0-0-0-0-0-0-0-0-0-0-0-0-0-0--|


        F#5    G5     F#5
 5/4
  E S S Q  S S Q  S S Q
|------------------------|
|------------------------|
|------------------------|
|------------------------|
|-------4------5------4--|
|-0-1p0-2--1p0-3--1p0-2--|
|
| Gtr V
| W
|------------------------|
|------------------------|
|------------------------|
|------------------------|
|------------------------|
|------------------------|


  $$
  N.C.
 4/4
         PM------------------------------------|
    S  S S S  S  S S S S S S S S S S S   E E E E S S S S Q
|--------------------------------------|------------------------|
|--------------------------------------|------------------------|
|--------------------------------------|------------------------|
|--------------------------------------|------------------------|
|--------------------------------------|---------1p0------------|
|---1p=0-0-0--0--0-0-0-0-0-0-0-0-0-0-0-|-0-1-3-4-----3p0-3b3.5--|
|
|   S  E.     Q        H                 W
|--------------------------------------|------------------------|
|-/22----------------------------------|------------------------|
|-----19s====12\-----------------------|------------------------|
|--------------------------------------|------------------------|
|--------------------------------------|------------------------|
|--------------------------------------|------------------------|


      PM------------------------|
  S S S S S S S S S S S S S S S S
|---------------------------------|
|---------------------------------|
|---------------------------------|
|---------------------------------|
|---------------------------------|
|-1p0-0-0-0-0-0-0-0-0-0-0-0-0-0-0-|


        F#5    G5     F#5  N.C.
 5/4                      4/4
                               PM------------------------|
  E S S Q  S S Q  S S Q    S S S S S S S S S S S S S S S S
|------------------------|---------------------------------|
|------------------------|---------------------------------|
|------------------------|---------------------------------|
|------------------------|---------------------------------|
|-------4------5------4--|---------------------------------|
|-0-1p0-2--1p0-3--1p0-2--|-1p0-0-0-0-0-0-0-0-0-0-0-0-0-0-0-|


  Gtrs II, III
  PM----|                      PM------------------------|
  E E E E S S S S Q        S S S S S S S S S S S S S S S S
|------------------------|---------------------------------|
|------------------------|---------------------------------|
|------------------------|---------------------------------|
|------------------------|---------------------------------|
|---------1p0------------|---------------------------------|
|-0-1-3-4-----3p0-3b3.5--|-1p0-0-0-0-0-0-0-0-0-0-0-0-0-0-0-|


                           Chorus
        F#5                 N.C.
 5/4                       4/4
                            PM----------------------------|
  E S S Q  S S Q  S S Q     S S S S S S S S S S S S S S S S
|------------------------||----------------------------------|
|------------------------||----------------------------------|
|------------------------||----------------------------------|
|------------------------||----------------------------------|
|-------4------4------4--||----------------------------------|
|-0-1p0-2--1p0-2--1p0-2--||-1-1-1-1-1-1-4-4-3-3-3-3-3-3-4-4--|


  PM--------------------------------------------------------------|
  S S S S S S S S S S S S S S S S   S S S S S S S S S S S S S S S S
|---------------------------------|---------------------------------|
|---------------------------------|---------------------------------|
|---------------------------------|---------------------------------|
|---------------------------------|---------------------------------|
|---------------------------------|---------------------------------|
|-1-1-1-1-1-1-4-4-3-3-3-3-3-3-3-3-|-1-1-1-1-1-1-4-4-3-3-3-3-3-4-4-4-|


  PM-------------------------------
  S S S S S S S S S S S S S S S S
|---------------------------------|
|---------------------------------|
|---------------------------------|
|---------------------------------|
|---------------------------------|
|-1-1-1-1-1-1-4-4-3-3-3-3-3-3-3-3-|


 -----------------------------------------------------------------|
  S S S S S S S S S S S S S S S S   S S S S S S S S S S S S S S S S
|---------------------------------|---------------------------------|
|---------------------------------|---------------------------------|
|---------------------------------|---------------------------------|
|---------------------------------|---------------------------------|
|---------------------------------|---------------------------------|
|-1-1-1-1-1-1-4-4-3-3-3-3-3-4-4-4-|-1-1-1-1-1-1-4-4-3-3-3-3-3-3-3-3-|


                                                    Ab5G5
  PM----------------------------------------------|
  S S S S S S S S S S S S S S S S   S S S S S S S S Q  Q
|---------------------------------|-----------------------||
|---------------------------------|-----------------------||
|---------------------------------|-----------------------||
|---------------------------------|-----------------------||
|---------------------------------|-----------------6--5--||
|-1-1-1-1-1-1-4-4-3-3-3-3-3-3-4-4-|-1-1-1-1-1-1-4-4-4--3--||


 Verse
  N.C.
  PM--------------------------------------------------------------|
  S S S S S S S S S S S S S S S S   S S S S S S S S S S S S S S S S
|---------------------------------|---------------------------------|
|---------------------------------|---------------------------------|
|---------------------------------|---------------------------------|
|---------------------------------|---------------------------------|
|---------------------------------|---------------------------------|
|-0-0-0-0-0-0-3-3-4-4-4-4-4-4-1-1-|-3-3-3-3-3-3-1-1-4-4-4-4-4-4-4-4-|


  PM-------------------------------
  S S S S S S S S S S S S S S S S
|---------------------------------|
|---------------------------------|
|---------------------------------|
|---------------------------------|
|---------------------------------|
|-0-0-0-0-0-0-3-3-4-4-4-4-4-4-1-1-|


 -----------------------------------------------------------------|
  S S S S S S S S S S S S S S S S   S S S S S S S S S S S S S S S S
|---------------------------------|---------------------------------|
|---------------------------------|---------------------------------|
|---------------------------------|---------------------------------|
|---------------------------------|---------------------------------|
|---------------------------------|---------------------------------|
|-3-3-3-3-3-3-1-1-4-4-4-4-4-4-4-4-|-0-0-0-0-0-0-3-3-4-4-4-4-4-4-1-1-|


                         To Coda
  PM-----------------------------------------------------------------
  S S S S S S S S S S S S S S S S   S S S S S S S S S S S S S S S S
|---------------------------------|---------------------------------|
|---------------------------------|---------------------------------|
|---------------------------------|---------------------------------|
|---------------------------------|---------------------------------|
|---------------------------------|---------------------------------|
|-3-3-3-3-3-3-1-1-4-4-4-4-4-4-4-4-|-0-0-0-0-0-0-3-3-4-4-4-4-4-4-1-1-|


                    To Dbl. Coda
 -------------------------------|
  S S S S S S S S S S S S S S S S
|---------------------------------||
|---------------------------------||
|---------------------------------||
|---------------------------------||
|---------------------------------||
|-3-3-3-3-3-3-1-1-4-4-4-4-4-4-4-4-||


 Guitar Solo
  Gtr IV
                 |-------3--------|     |-------3--------|          |--------3--------|
   Q            +E     +E        +E     E        +E     +E         +E     +E         +E
|-22b24========(22)r==(22)b24---(22)---22b24====(22)r==(22)b24====(22)r==(22)b24====(22)r---|
|-------------------------------------------------------------------------------------------|
|-------------------------------------------------------------------------------------------|
|-------------------------------------------------------------------------------------------|
|-------------------------------------------------------------------------------------------|
|-------------------------------------------------------------------------------------------|
|
| Gtrs II, III
|          PM-----------------------------------------------------------------------------|
|  S     S S S   S  S         S      S  S     S      S          S   S  S          S       S
|-------------------------------------------------------------------------------------------|
|-------------------------------------------------------------------------------------------|
|-------------------------------------------------------------------------------------------|
|-------------------------------------------------------------------------------------------|
|-------------------------------------------------------------------------------------------|
|--1p====0-0-0---0--0---------0------0--0-----0------0----------0---0--0----------0-------0-|


          F#5                   G5                           F#5
 5/4
             |--3--|  |-------6--------|  |-------6--------|  |------6-------|
   Q.        S  S  S  S  S    S  S  S  S  S  S  S  S  S    S  S  S  S  S  S  S
|-22--------19-19-20-20-19---19-20-20-19-20-20-19-19-22---22-22-20-20-22-22-20---|
|--------------------------------------------------------------------------------|
|--------------------------------------------------------------------------------|
|--------------------------------------------------------------------------------|
|--------------------------------------------------------------------------------|
|--------------------------------------------------------------------------------|
|
|  E  S S Q           S    S     Q                 S    S     Q
|--------------------------------------------------------------------------------|
|--------------------------------------------------------------------------------|
|--------------------------------------------------------------------------------|
|--------------------------------------------------------------------------------|
|---------4----------------------5----------------------------4------------------|
|--0--1p0-2-----------1p===0-----3-----------------1p===0-----2------------------|


 4/4
   S  S  S  S  S  S  S  S  S  S  S  S  S  S  S  S
|-19-19-------------------------------------------|
|-------22-22-19-20-22-19-20-20-22-22-20-19-------|
|-------------------------------------------20-20-|
|-------------------------------------------------|
|-------------------------------------------------|
|-------------------------------------------------|
|
|        PM------------------------------------|
|  S  S  S  S  S  S  S  S  S  S  S  S  S  S  S  S
|-------------------------------------------------|
|-------------------------------------------------|
|-------------------------------------------------|
|-------------------------------------------------|
|-------------------------------------------------|
|--1p=0--0--0--0--0--0--0--0--0--0--0--0--0--0--0-|


              F#5         G5     F#5
 5/4
                      ~~~~
   S  S  S  S  +Q    +H.
|-----------------------------------|
|-----------------------------------|
|-18-18-18-20-(20)--(20)------------|
|-----------------------------------|
|-----------------------------------|
|-----------------------------------|
|
|  E     S  S   Q     S S Q  S S Q
|-----------------------------------|
|-----------------------------------|
|-----------------------------------|
|-----------------------------------|
|---------------4---------5------4--|
|--0-----1p=0---2-----1p0-3--1p0-2--|


 4/4
   S  S  S  S  S  S  S  S  S  S  S  S  S  S  S  S
|-17-17-18-18-20-20-18-17-------------------------|
|-------------------------20-20-17-18-17-18-17-17-|
|-------------------------------------------------|
|-------------------------------------------------|
|-------------------------------------------------|
|-------------------------------------------------|
|
|        PM------------------------------------|
|  S  S  S  S  S  S  S  S  S  S  S  S  S  S  S  S
|-------------------------------------------------|
|-------------------------------------------------|
|-------------------------------------------------|
|-------------------------------------------------|
|-------------------------------------------------|
|--1p=0--0--0--0--0--0--0--0--0--0--0--0--0--0--0-|


              F#5               G5                F#5
 5/4
   S  S  S  S  S  S  S  S  S  S  S  S  S  S  S  S  S  S  S  S
|--------------------------------------------------------------|
|--------------------------------------------------------------|
|-19S16-16-16-14-14-15-17-14-14-15-17-15-15-16-15--------------|
|-------------------------------------------------17-17-15-16--|
|--------------------------------------------------------------|
|--------------------------------------------------------------|
|
|  E     S  S  Q           S  S  Q           S  S  Q
|--------------------------------------------------------------|
|--------------------------------------------------------------|
|--------------------------------------------------------------|
|--------------------------------------------------------------|
|--------------4-----------------5-----------------4-----------|
|--0-----1p=0--2-----------1p=0--3-----------1p=0--2-----------|


 4/4
   S  S  S  S  E    S  S  +S  S  S  S  S  S  E
|------------------------------------------------|
|------------------------------------------------|
|------------------------------------------------|
|-16-17-15-15-------------------15-17-15-15-17---|
|-------------17---15-17-(17)-x------------------|
|------------------------------------------------|
|
|        PM------------------------------------|
|  S  S  S  S  S S  S  S   S  S  S  S  S  S  S S
|------------------------------------------------|
|------------------------------------------------|
|------------------------------------------------|
|------------------------------------------------|
|------------------------------------------------|
|--1p=0--0--0--0-0--0--0---0--0--0--0--0--0--0-0-|


                                                        D.S. al Coda
             F#5               G5                  F#5           G5
                                                  2/4
   S  S  E    Q       +S   +S   Q       +S   +S     S     +E   S  Q
|------------------------------------------------|--------------------||
|------------17b18===(17)r(17)-17b18===(17)r(17)-|-17b18-(17)----15---||
|-16----14---16b17===(16)-(16)-16b17===(16)-(16)-|-16b17-(16)r---14---||
|----17-14---------------------------------------|--------------------||
|------------------------------------------------|--------------------||
|------------------------------------------------|--------------------||
|
|  E     S S  Q        S    S   Q        S    S     Q             Q
|------------------------------------------------|--------------------||
|------------------------------------------------|--------------------||
|------------------------------------------------|--------------------||
|------------------------------------------------|--------------------||
|-------------4-----------------5----------------|--4-------------5---||
|--0-----1p0--2--------1p===0---3--------1p===0--|--2-------------3---||


  &
  N.C.
 4/4
  Gtrs II, III
  PM--------------------------------------------------------------|
  S S S S S S S S S S S S S S S S   S S S S S S S S S S S S S S S S
|---------------------------------|----------------------------------||
|---------------------------------|----------------------------------||
|---------------------------------|----------------------------------||
|---------------------------------|----------------------------------||
|---------------------------------|----------------------------------||
|-0-0-0-0-0-0-3-3-4-4-4-4-4-4-1-1-|-3-3-3-3-3-3-3-3-3-3-3-3-3-3-3-3--||


 Interlude
  E5 G5 F#5E5                     Ab5G5 E5
           PM-------------|             PM-------------|
  Q  Q  Q  Q    Q  Q  E E Q    Q  Q  Q  Q    Q  Q  E E Q
|-------------|--------------|-------------|--------------|
|-------------|--------------|-------------|--------------|
|-------------|--------------|-------------|--------------|
|-------------|--------------|-------------|--------------|
|-2--5--4--2--|-2--2--2-2-2--|-2--6--5--2--|-2--2--2-2-2--|
|-0--3--2--0--|-0--0--0-0-0--|-0--4--3--0--|-0--0--0-0-0--|


     G5 F#5E5                     Ab5G5 E5         F5
           PM-------------|             PM---|
  Q  Q  Q  Q    Q  Q  E E Q    Q  Q  Q  Q    Q  Q  E E E E
|-------------|--------------|-------------|---------------||
|-------------|--------------|-------------|---------------||
|-------------|--------------|-------------|---------------||
|-------------|--------------|-------------|---------------||
|-2--5--4--2--|-2--2--2-2-2--|-2--6--5--2--|-2--4--3-3-3-3-||
|-0--3--2--0--|-0--0--0-0-0--|-0--4--3--0--|-0--2--1-1-1-1-||


 Bridge
  E5 G5 F#5E5                     Ab5G5 E5
           PM-------------|             PM-------------|
  Q  Q  Q  Q    Q  Q  E E Q    Q  Q  Q  Q    Q  Q  E E Q
|-------------|--------------|-------------|--------------|
|-------------|--------------|-------------|--------------|
|-------------|--------------|-------------|--------------|
|-------------|--------------|-------------|--------------|
|-2--5--4--2--|-2--2--2-2-2--|-2--6--5--2--|-2--2--2-2-2--|
|-0--3--2--0--|-0--0--0-0-0--|-0--4--3--0--|-0--0--0-0-0--|


     G5 F#5E5                     Ab5G5 E5      F#5F5
           PM-------------|             PM---|
  Q  Q  Q  Q    Q  Q  E E Q    Q  Q  Q  Q    Q  Q  E E E E
|-------------|--------------|-------------|---------------|
|-------------|--------------|-------------|---------------|
|-------------|--------------|-------------|---------------|
|-------------|--------------|-------------|---------------|
|-2--5--4--2--|-2--2--2-2-2--|-2--6--5--2--|-2--4--3-3-3-3-|
|-0--3--2--0--|-0--0--0-0-0--|-0--4--3--0--|-0--2--1-1-1-1-|


  E5                                 F5 Ab5
  Gtr II
  S S E E S S E E S S E   E S S S E. Q  Q
|-----------------------|------------------|
|-----------------------|------------------|
|-----------------------|------------------|
|-----------------------|------------------|
|-----------------------|------------3--6--|
|-0h1p0-0-0h1p0-0-0h1p0-|-0-0h3p1p0--1--4--|
|
| Gtr III
| q     Q     H           W
|-----------------------|------------------|
|-----------------------|------------------|
|-----------------------|------------------|
|-2---------------------|------------------|
|-2---------------------|------------------|
|-0---------------------|------------------|

[ Tab from: http://www.guitaretab.com/s/slayer/74053.html ]
                                     Ab5G5
  S S E E S S E E S S E   E S S S E. Q  Q
|-----------------------|-------------------|
|-----------------------|-------------------|
|-----------------------|-------------------|
|-----------------------|-------------------|
|-----------------------|------------6--5---|
|-0h1p0-0-0h1p0-0-0h1p0-|-0-0h4p2p0--4--3---|
|
| e   E Q     H           W
|-----------------------|-------------------|
|-----------------------|-------------------|
|-----------------------|-------------------|
|-2---------------------|-------------------|
|-2---------------------|-------------------|
|-0---------------------|-------------------|


                                     F5 Ab5
  Gtrs II, III
  S S E E S S E E S S E   E S S S E. Q  Q
|-----------------------|------------------|
|-----------------------|------------------|
|-----------------------|------------------|
|-----------------------|------------------|
|-----------------------|------------3--6--|
|-0h1p0-0-0h1p0-0-0h1p0-|-0-0h3p1p0--1--4--|


                                     AbG5
                                     PM|
  S S E E S S E E S S E   E S S S E. E E Q
|-----------------------|-------------------||
|-----------------------|-------------------||
|-----------------------|-------------------||
|-----------------------|-------------------||
|-----------------------|------------6-5-5--||
|-0h1p0-0-0h1p0-0-0h1p0-|-0-0h4p2p0--4-3-3--||


 Guitar Solo
                                            F5  G5    F5  G5  Ab5
  Gtr V
  S S S S S S S S S S S S S S S S   S S S S S S E S S S S S S E
|---------------------------------|-----------------------------|
|---------------------------------|-----------------------------|
|---------------------------------|-----------------------------|
|-3p0h3p0h3p0h3p0h3p0h3p0h3p0h3p0h|=3p0h3p0h3p0h3p0h3p0h3p0h3h5-|
|---------------------------------|-----------------------------|
|---------------------------------|-----------------------------|
|
| Gtrs II, III
| PM----------------------------|
| S S S S S S S S S S S S S S S S   E   E   E   E E   E   E   E
|---------------------------------|-----------------------------|
|---------------------------------|-----------------------------|
|---------------------------------|-----------------------------|
|---------------------------------|-----------------------------|
|---------------------------------|---------3---5-----3---5---6-|
|-1-1-1-1-1-1-1-1-1-1-1-1-1-1-1-1-|-1---0---1---3-0---1---3---4-|


                                                 G5  Ab5     G5      F5 G5
  Q.            +E    E      +E    +E    +E      S S S S S S S S E E  E  E
|----------------------------------------------|---------------------------|
|-6b8-----------(6)---6b9====(6)---(6)r==(6)---|-------------------6s13s20-|
|----------------------------------------------|-3p0h3p0h3p0h3p0h3---------|
|----------------------------------------------|---------------------------|
|----------------------------------------------|---------------------------|
|----------------------------------------------|---------------------------|
|
| PM-----------------------------------------|
| S   S S S S S  S  S S    S  S  S  S  S  S  S   E   E   E   E   E E  E  E
|----------------------------------------------|---------------------------|
|----------------------------------------------|---------------------------|
|----------------------------------------------|---------------------------|
|----------------------------------------------|---------------------------|
|----------------------------------------------|-5---6---6---5-----5--3--5-|
|-3---3-3-3-3-3--3--3-3----3--3--3--3--3--3--3-|-3---4---4---3---0-3--1--3-|


   a      +E.      +S   S  S  S  S  a      +E     +E     S  S  S  S
|-18-----(18)----------------------18-----(18)----------------------|
|-21b23==(21)r====(21)-18-20-20-21-21b23==(21)r==(21)---18-20-21-18-|
|-------------------------------------------------------------------|
|-------------------------------------------------------------------|
|-------------------------------------------------------------------|
|-------------------------------------------------------------------|
|
|          PM----------------------------------------------------|
|          S  S S   S   S  S  S  S          S  S   S  S  S  S  S  S
|-------------------------------------------------------------------|
|-------------------------------------------------------------------|
|-------------------------------------------------------------------|
|-------------------------------------------------------------------|
|-------------------------------------------------------------------|
|----------1--1-1---1---1--1--1--1----------1--1---1--1--1--1--1--1-|


           F5G5  F5G5       Ab5
   H.               +E       +E
|-21b22============(21)b24==(21)r-|
|---------------------------------|
|---------------------------------|
|---------------------------------|
|---------------------------------|
|---------------------------------|
|
|  E     E E E E E   E        E
|---------------------------------|
|---------------------------------|
|---------------------------------|
|---------------------------------|
|----------3-5---3---5--------6---|
|--1-----0-1-3-0-1---3--------4---|


   ~~
   H                E    S  S  S  S  S  S
|-21---------------18---20-20-21-21-18-18-|
|-----------------------------------------|
|-----------------------------------------|
|-----------------------------------------|
|-----------------------------------------|
|-----------------------------------------|
|
|  PM----------------------------------|
|  S S S S S S S S  S S  S  S  S  S  S  S
|-----------------------------------------|
|-----------------------------------------|
|-----------------------------------------|
|-----------------------------------------|
|-----------------------------------------|
|--3-3-3-3-3-3-3-3--3-3--3--3--3--3--3--3-|


  G5    Ab5        G5              F5  G5
   |---3---|  |---3---|  |---3---|
   E  E    E  E  E    E  E  E    E  Q
|----------------------------------------|
|-21-20---18-18--------------------------|
|---------------21---18-18-17---17-------|
|----------------------------------17\---|
|----------------------------------------|
|----------------------------------------|
|
|  E    E     E    E     E    E     E  E
|----------------------------------------|
|----------------------------------------|
|----------------------------------------|
|----------------------------------------|
|--5----6-----6----5----------5-----3--5-|
|--3----4-----4----3-----0----3-----1--3-|


               ~~~
  S T T +E    +H.
|---------------------------------------|
|---------------------------------------|
|-5h6p5-(5)---(5)-----------------------|
|---------------------------------------|
|---------------------------------------|
|---------------------------------------|
|
| PM----------------------------------|
| S S    S  S  S  S S S S S S S S S S S
|---------------------------------------|
|---------------------------------------|
|---------------------------------------|
|---------------------------------------|
|---------------------------------------|
|-1-1----1--1--1--1-1-1-1-1-1-1-1-1-1-1-|


        F5G5  F5 G5Ab5
                                  ~
  +E  E E E E  E E  E    S S  E   H               +E     S S
|---------------------|---------------------------------------|
|---------------------|---------------------------------------|
|-(5)-----5-6s10-9----|-12-9-10---9---------------(9)---10p0--|
|-----5-6----------10-|---------------------------------------|
|---------------------|---------------------------------------|
|---------------------|---------------------------------------|
|
|                        PM--------------------------------|
|  E  E E E E  E E  E    S S  S S S S S S S S S S  S  S  S S
|---------------------|---------------------------------------|
|---------------------|---------------------------------------|
|---------------------|---------------------------------------|
|---------------------|---------------------------------------|
|-------3-5----3-5--6-|---------------------------------------|
|--1--0-1-3-0--1-3--4-|--3-3--3-3-3-3-3-3-3-3-3-3--3--3--3-3--|


  G5  Ab5    G5    F5    G5
         \1_________\1.5
  +Q    +H         +E    +E
|----------------------------|
|----------------------------|
|-(0)---(0)--------(0)---(0)-|
|----------------------------|
|----------------------------|
|----------------------------|
|
|  E  E  E   E E E  E     E
|----------------------------|
|----------------------------|
|----------------------------|
|----------------------------|
|--5--6--6---5---5--3-----5--|
|--3--4--4---3-0-3--1-----3--|


                                                           F5G5    F5G5 Ab5
  E      +Q        E     +Q        S     +E.       +E   Q.      Q     Q
|------------------------------------------------|-------------------------|
|-5----------------5---------------6-------------|------8/-----------15S===|
|-7b9====(7)-------7b9---(7)-------8b10==(8)-----|-(8)r--------12/---------|
|------------------------------------------------|-------------------------|
|------------------------------------------------|-------------------------|
|------------------------------------------------|-------------------------|
|
| PM-------------------------------------------|
| S    S  S  S S S S   S  S  S S S S      S  S S    E   E  E E  E  E  E E
|------------------------------------------------|-------------------------|
|------------------------------------------------|-------------------------|
|------------------------------------------------|-------------------------|
|------------------------------------------------|-------------------------|
|------------------------------------------------|---------3-5-----3--5-6--|
|-1----1--1--1-1-1-1---1--1--1-1-1-1------1--1-1-|--1---0--1-3--0--1--3-4--|


   Q            +E      E       +Q         E       +E
|----------------------19-----------------19-------------|
|-22b24========(22)r---22b24---(22)-------22b24---(22)---|
|--------------------------------------------------------|
|--------------------------------------------------------|
|--------------------------------------------------------|
|--------------------------------------------------------|
|
|  PM--------------------------------------------------|
|  S     S S S   S   S  S    S   S  S S S  S    S   S  S
|--------------------------------------------------------|
|--------------------------------------------------------|
|--------------------------------------------------------|
|--------------------------------------------------------|
|--------------------------------------------------------|
|--3-----3-3-3---3---3--3----3---3--3-3-3--3----3---3--3-|


  G5    Ab5    G5
   E     +Q     E     +E.    S      +E    S  S
|-19-----------19-----------19-----------22-22-|
|-22b24-(22)---22b24-(22)---22b24==(22)r-------|
|----------------------------------------------|
|----------------------------------------------|
|----------------------------------------------|
|----------------------------------------------|
|
|  E      E  E  E      E  E          E    E
|----------------------------------------------|
|----------------------------------------------|
|----------------------------------------------|
|----------------------------------------------|
|--5------6--6--5---------5---------------5----|
|--3------4--4--3------0--3----------0----3----|


   Q        +H                     +E         +E
|-22-------(22)b23================(22)b24====(22)---|
|---------------------------------------------------|
|---------------------------------------------------|
|---------------------------------------------------|
|---------------------------------------------------|
|---------------------------------------------------|
|
|  PM---------------------------------------------|
|  S S S S   S      S S S S S S S   S      S   S  S
|---------------------------------------------------|
|---------------------------------------------------|
|---------------------------------------------------|
|---------------------------------------------------|
|---------------------------------------------------|
|--0-0-0-0---0------0-0-0-0-0-0-0---0------0---0--0-|


                   Ab5 G5  Ab5 G5
   TP      TP
   a      +W
|-22pb24-(22)pb24================|
|--------------------------------|
|--------------------------------|
|--------------------------------|
|--------------------------------|
|--------------------------------|
|
|          E       E E E E E E E
|--------------------------------|
|--------------------------------|
|--------------------------------|
|--------------------------------|
|------------------6-6-5---6-6-5-|
|----------0-------4-4-3-0-4-4-3-|


                                                    Ab5 G5  Ab5  G5
   TP  TP                         TP          TP               TP
   a  +H.                        +Q           H.               Q
|-22-(22)r======================(22)-------|-22b24============22---|
|------------------------------------------|-----------------------|
|------------------------------------------|-----------------------|
|------------------------------------------|-----------------------|
|------------------------------------------|-----------------------|
|------------------------------------------|-----------------------|
|
|      PM--------------------------------|
|      S  S S S S S S S S S S S   S  S S S    E     E E E E E  E E
|------------------------------------------|-----------------------|
|------------------------------------------|-----------------------|
|------------------------------------------|-----------------------|
|------------------------------------------|-----------------------|
|------------------------------------------|--------6-6-5---6--6-5-|
|------0--0-0-0-0-0-0-0-0-0-0-0---0--0-0-0-|--0-----4-4-3-0-4--4-3-|


                                                Ab5      G5  Ab5   G5
                                                   \0.5_________\1
   TP  TP
   a  +Q         H.                         +Q    +H           +E  +E
|-22-(22)r--------------------------------|-----------------------------|
|----------------0------------------------|-----------------------------|
|----------------0------------------------|-(0)---(0)----------(0)-(0)--|
|-----------------------------------------|-----------------------------|
|-----------------------------------------|-----------------------------|
|-----------------------------------------|-----------------------------|
|
|      PM-------------------------------|
|      S   S S S S  S S S S S S S S S S S    E  E  E     E E E  E   E
|-----------------------------------------|-----------------------------|
|-----------------------------------------|-----------------------------|
|-----------------------------------------|-----------------------------|
|-----------------------------------------|-----------------------------|
|-----------------------------------------|-----6--6-----5---6--6---5---|
|------0---0-0-0-0--0-0-0-0-0-0-0-0-0-0-0-|--0--4--4-----3-0-4--4---3---|


                                         D.S.S. al Dbl. Coda
                                          Ab5   G5          F5
   ~~~~~~~~~~~~~~~~~~~~~~~~~~~~~~~~~~~~~~~~~~~~~~~~~~~~~~~~~~~~
   S S S S S S  S S  S S S S S S S S    E  E  E  E  E  E  E  E
|------------------------------------|-------------------------||
|------------------------------------|-------------------------||
|-/7p0h8p0h9p0h17p0h16p0h7p0h8p0h9p0-|-/8s11s12s16s17s19s20s21-||
|------------------------------------|-------------------------||
|------------------------------------|-------------------------||
|------------------------------------|-------------------------||
|
|  PM------------------------------|
|  S S S S S S  S S  S S S S S S S S    E  E  E  E  E  E  E  E
|------------------------------------|-------------------------||
|------------------------------------|-------------------------||
|------------------------------------|-------------------------||
|------------------------------------|-------------------------||
|------------------------------------|-----6--6--5-----5-----3-||
|--0-0-0-0-0-0--0-0--0-0-0-0-0-0-0-0-|--0--4--4--3--0--3--0--1-||


  &&
  E5
  Gtrs II, III
  PM----------------------|                  PM------------|
  E E E E E E E E   E E E E S S S S Q        E E E E E E E E
|-----------------|------------------------|------------------|
|-----------------|------------------------|------------------|
|-----------------|------------------------|------------------|
|-----------------|------------------------|------------------|
|-2-2-2-2-2-2-2-2-|---------1p0------------|-2-2-2-2-2-2-2-2--|
|-0-0-0-0-0-0-0-0-|-0-1-3-4-----3p0-3b3.5--|-0-0-0-0-0-0-0-0--|


        F#5    G5       F#5G5   E5
                       2/4     4/4
                                PM------------|
  E S S Q  S S Q  S S   Q  Q    E E E E E E E E
|---------------------|-------|-----------------|
|---------------------|-------|-----------------|
|---------------------|-------|-----------------|
|---------------------|-------|-----------------|
|-------4------5------|-4--5--|-2-2-2-2-2-2-2-2-|
|-0-1p0-2--1p0-3--1p0-|-2--3--|-0-0-0-0-0-0-0-0-|


                                                   F#5
  PM----|                  PM------------|
  E E E E S S S S Q        E E E E E E E E   E S S Q  S S Q  S S
|------------------------|-----------------|---------------------|
|------------------------|-----------------|---------------------|
|------------------------|-----------------|---------------------|
|------------------------|-----------------|---------------------|
|---------1p0------------|-2-2-2-2-2-2-2-2-|-------4------4------|
|-0-1-3-4-----3p0-3b3.5--|-0-0-0-0-0-0-0-0-|-0-1p0-2--1p0-2--1p0-|


                                   G5
 2/4     4/4                   2/4
  Q  Q    E S S Q  S S Q  S S   Q  Q
|-------|---------------------|-------||
|-------|---------------------|-------||
|-------|---------------------|-------||
|-------|---------------------|-------||
|-4--4--|-------4------4------|-4--5--||
|-2--2--|-0-1p0-2--1p0-2--1p0-|-2--3--||


 Guitar Solo
 4/4
  Gtr IV
                                          |----3----|
   S  S  T  T  S  S  S  S  S  S  S  S  S  E    E    E
|-16-17-17p16-19-16-16-17-17-19-19-17-16-16-------------|
|---------------------------------------------19---17---|
|-------------------------------------------------------|
|-------------------------------------------------------|
|-------------------------------------------------------|
|-------------------------------------------------------|
|
| Gtrs II, III
|  PM-------------------------------------------------|
|  S  S  S     S  S  S  S  S  S  S  S  S  S S    S    S
|-------------------------------------------------------|
|-------------------------------------------------------|
|-------------------------------------------------------|
|-------------------------------------------------------|
|-------------------------------------------------------|
|--0--0--0-----0--0--0--0--0--0--0--0--0--0-0----0----0-|


               F#5
                                                            2/4
   |---3---|                |-------5-------|  |---3---|      |--3--|  |--3--|
   E  E    E    S  S  S  S  S  S    S    S  S  E  E    E      E  E  E  E  E  E
|----------------------------------------------------------|----------------------|
|-16-17---19---16-17-17-19-16-17---17---16-16--------------|----------------------|
|---------------------------------------------17-16---15---|-14-15-17-14-15-17----|
|----------------------------------------------------------|----------------------|
|----------------------------------------------------------|----------------------|
|----------------------------------------------------------|----------------------|
|
|  E    S    S  Q           S    S    Q             S    S    Q        Q
|----------------------------------------------------------|----------------------|
|----------------------------------------------------------|----------------------|
|----------------------------------------------------------|----------------------|
|----------------------------------------------------------|----------------------|
|---------------4---------------------4--------------------|--4--------4----------|
|--0----1p===0--2-----------1p===0----2-------------1p===0-|--2--------2----------|


 4/4
   S  S  S  S  S  S  S  S  S  S  S  S  S  S  S  S
|-------------------------------------------------|
|-------------------------------------------------|
|-15-15-14-14-------------------------------------|
|-------------18-15-15-16-18-16-15----------------|
|----------------------------------18-15-15-16-16-|
|-------------------------------------------------|
|
|  PM------------------------------------------|
|  S  S  S  S  S  S  S  S  S  S  S  S  S  S  S  S
|-------------------------------------------------|
|-------------------------------------------------|
|-------------------------------------------------|
|-------------------------------------------------|
|-------------------------------------------------|
|--0--0--0--0--0--0--0--0--0--0--0--0--0--0--0--0-|


                                                 2/4
                                    |---3---|      |--3--|  |--3--|
   S  S  S  S  E  S  S  S  S  S  S  E  E    E      E  E  E  E  E  E
|-----------------------------------------------|--------------------|
|-----------------------------------------------|--------------------|
|-------------------------14-------16-----------|-16-------16-17-18--|
|----15-------15-16-16-17----16-17----17---18---|----18-19-----------|
|-17----16-17-----------------------------------|--------------------|
|-----------------------------------------------|--------------------|
|
|  E     S  S  Q        S  S  Q          S    S    Q        Q
|-----------------------------------------------|--------------------|
|-----------------------------------------------|--------------------|
|-----------------------------------------------|--------------------|
|-----------------------------------------------|--------------------|
|--------------4--------------4-----------------|--4--------4--------|
|--0-----1p=0--2--------1p=0--2----------1p===0-|--2--------2--------|


 4/4
   |----3----|                          |----3----|
   E    E    E    S  S  S  S  E    E    E    E    E
|----------------17-----------------------------------|
|----------------17--------------------19---20---19---|
|-20---17---18------18-19-20-18---19------------------|
|-----------------------------------------------------|
|-----------------------------------------------------|
|-----------------------------------------------------|
|
|  PM-----------------------------------------------|
|  S S    S    S  S  S  S  S  S S  S S  S S    S    S
|-----------------------------------------------------|
|-----------------------------------------------------|
|-----------------------------------------------------|
|-----------------------------------------------------|
|-----------------------------------------------------|
|--0-0----0----0--0--0--0--0--0-0--0-0--0-0----0----0-|


                                                       2/4
   |---3---|                                                         |-----5-----|
   E  E    E    S  S  S  S  S  S  S  S  S  S  T  T  S    S  S  S  S  S  S  S  S  S
|--------------------------------------------23-------|-23-21-20-19-19-20-20-23-23---|
|--------------19-19-20-20-22-19-20-22-19-20----23-23-|------------------------------|
|-20-18---20-------------------x----------------------|------------------------------|
|-----------------------------------------------------|------------------------------|
|-----------------------------------------------------|------------------------------|
|-----------------------------------------------------|------------------------------|
|
|  E    S    S  Q           S  S  Q           S     S    Q           Q
|-----------------------------------------------------|------------------------------|
|-----------------------------------------------------|------------------------------|
|-----------------------------------------------------|------------------------------|
|-----------------------------------------------------|------------------------------|
|---------------4-----------------4-------------------|--4-----------4---------------|
|--0----1p===0--2-----------1p=0--2-----------1p====0-|--2-----------2---------------|


 4/4
   |--------5--------|                             |---3---|
   S  S    S    S    S  S  S  S  S  T  T  S  S  S  S  S    S  E
|-19-20---20---19---23-23-20-19-20-20p19-23-23-20-19-23---23-20---|
|-----------------------------------------------------------------|
|-----------------------------------------------------------------|
|-----------------------------------------------------------------|
|-----------------------------------------------------------------|
|-----------------------------------------------------------------|
|
|  PM-----------------------------------------------------------|
|  S    S    S    S     S  S  S  S  S     S  S  S  S    S     S S
|-----------------------------------------------------------------|
|-----------------------------------------------------------------|
|-----------------------------------------------------------------|
|-----------------------------------------------------------------|
|-----------------------------------------------------------------|
|--0----0----0----0-----0--0--0--0--0-----0--0--0--0----0-----0-0-|


                                  G5
  S  E.      E      +E   +S   +S   E      +E.    +S     a      +Q    +Q    H
|-x-19-----------------------------------------------|--------------------------*|
|-----------21b22==(21)-(21)r(21)-21b22==(21)r==(21)-|-21b22==(21)r=(21)\-------*|
|-----------20b21==(20)-(20)r(20)-20b21==(20)r==(20)-|-20b21==(20)r=(20)\-------*|
|----------------------------------------------------|--------------------------*|
|----------------------------------------------------|--------------------------*|
|----------------------------------------------------|--------------------------*|
|
| E     S S  Q            S    S   Q          S   S             q     Q    H
|----------------------------------------------------|--------------------------*|
|----------------------------------------------------|--------------------------*|
|----------------------------------------------------|--------------------------*|
|----------------------------------------------------|--------------------------*|
|------------4---------------------5-----------------|----------4---------------*|
|-0-----1p0--2------------1p===0---3----------1p==0--|----------2---------------*|



Duration Legend
---------------
W - whole; H - half; Q - quarter; E - 8th; S - 16th; T - 32nd; X - 64th; a - acciaccatura
+ - note tied to previous; . - note dotted; .. - note double dotted
Uncapitalized letters represent notes that are staccato (1/2 duration)
Irregular groupings are notated above the duration line
Duration letters will always appear directly above the note/fret number it represents the
duration for.  Duration letters with no fret number below them represent rests.  Multi-
bar rests are notated in the form Wxn, where n is the number of bars to rest for.  Low
melody durations appear below the staff

Tablature Legend
----------------
 h   - hammer-on
 p   - pull-off
 b   - bend
 pb  - pre-bend
 r   - bend release (if no number after the r, then release immediately)
 /\  - slide into or out of (from/to "nowhere")
 s   - legato slide
 S   - shift slide
 - natural harmonic
[n]  - artificial harmonic
n(n) - tapped harmonic
 ~   - vibrato
 tr  - trill
 T   - tap
 TP  - trem. picking
 PM  - palm muting
\n/  - tremolo bar dip; n = amount to dip
 \n  - tremolo bar down
 n/  - tremolo bar up
/n\  - tremolo bar inverted dip
 =   - hold bend; also acts as connecting device for hammers/pulls
 <> - volume swell (louder/softer)
 x   - on rhythm slash represents muted slash
 o   - on rhythm slash represents single note slash

Misc Legend
-----------
 |  - bar
||  - double bar
||o - repeat start
o|| - repeat end
*|  - double bar (ending)
 :  - bar (freetime)
 $  - Segno
 &  - Coda
Tempo markers -  = BPM(8/16=s8/s16), where s8 = swing 8ths, s16 = swing 16ths

Related for Cult tab
Advertisement will be closed in 10 seconds