Guitaretab - guitar tabs
Song name
# A B C D E F G H I J K L M N O P Q R S T U V W X Y Z

Slayer - God Hates Us All tab

                             God Hates Us All

Slayer


1.) Darkness Of Christ
  Repeat 3 times
Eb|----------------|
Bb|----------------|
F#|----------------|
C#|----------------|
G#|------2-2-2-2-2-|
C#|-2-3--0-0-0-0-0-|

   repeat 8 times
Eb|--------------------|
Bb|--------------------|
F#|--------------------|
C#|--------------------|
G#|--------------------|
C#|-3p2p0-3p0--0-0-0-0-|


Eb|-------------------------|
Bb|-------------------------|
F#|-------------------------|
C#|-------------------------|
G#|-2-2-2-2-2---------4-4-4-|
C#|-0-0-0-0-0---6-6-6-6-6-6-|


Eb|-17b-17b-17b-17b-17b-17b-|
Bb|-20b-20b-20b-20b-20b-20b-|
F#|-------------------------|
C#|-------------------------|
G#|-------------------------|
C#|-------------------------|
            pick
          -------------
Eb|-20b-20b-20-20-20-20-|
Bb|-23b-23b-23-23-23-23-|
F#|---------------------|
C#|---------------------|
G#|---------------------|
C#|---------------------|

   play this under the solo
Eb|--------------------|
Bb|--------------------|
F#|--------------------|
C#|--------------------|
G#|--------------------|
C#|-3p2p0-3p0--0-0-0-0-|

      ---------------------- wah
Eb|-21b-21-21-21-21-21-21-21---2-3-5-3-2------------------------------------|
Bb|--------------------------------------5-2-3-5-3-2------------------------|
F#|--------------------------------------------------4-1-2-4-2-1------------|
C#|--------------------------------------------------------------4-1-2-4-2-1|
G#|-------------------------------------------------------------------------|
C#|-------------------------------------------------------------------------|

                                                             pick slide down
Eb|--------0-2-3-2-0--------------------------------------------------|
Bb|------------------5-2-3-5-3-2--------------------------------------|
F#|------------------------------4-2-1-4-2-1--------------------------|
C#|-------------------------------------------4-1-2-4-2-1----X/-------|
G#|-4-2-1----------------------------------------------------X/-------|
C#|-------------------------------------------------------------------|

   repeat
Eb|----------------|
Bb|----------------|
F#|----------------|
C#|----------------|
G#|------2-2-2-2-2-|
C#|-2-3--0-0-0-0-0-|


Eb|--------------|
Bb|--------------|
F#|--------------|
C#|--------------|
G#|--8-8-8-8-8---|
C#|--6-6-6-6-6---|

   repeat
Eb|--------------------|
Bb|--------------------|
F#|--------------------|
C#|--------------------|
G#|--------------------|
C#|-3p2p0-3p0--0-0-0-0-|

   repeat
Eb|----------------|
Bb|----------------|
F#|----------------|
C#|----------------|
G#|------2-2-2-2-2-|
C#|-2-3--0-0-0-0-0-|

Eb|--------------|
Bb|--------------|
F#|--------------|
C#|--------------|
G#|--6-6-6-6-6---|
C#|--4-4-4-4-4---|

   repeat
Eb|--------------------|
Bb|--------------------|
F#|--------------------|
C#|--------------------|
G#|--------------------|
C#|-3p2p0-3p0--0-0-0-0-|

Eb|-------------------------|
Bb|-------------------------|
F#|-------------------------|
C#|-------------------------|
G#|-2-2-2-2-2---------4-4-4-|
C#|-0-0-0-0-0---6-6-6-6-6-6-|

   repeat
Eb|--------------------|
Bb|--------------------|
F#|--------------------|
C#|--------------------|
G#|--------------------|
C#|-2-3--0-0--1-2--0-0-|

Eb|----------------------------------|
Bb|----------------------------------|
F#|----------------------------------|
C#|----------------------------------|
G#|--------------------------------6-|
C#|-2--5--4-4---1--4--3-3---0-2-0--4-|

Eb|-------------------------|
Bb|-------------------------|
F#|-------------------------|
C#|-------------------------|
G#|-2-2-2-2-2---------4-4-4-|
C#|-0-0-0-0-0---6-6-6-6-6-6-|

Eb|--------------|
Bb|--------------|
F#|--------------|
C#|--------------|
G#|--8-8-8-8-8---|
C#|--6-6-6-6-6---|

Eb|--------------------|
Bb|--------------------|
F#|--------------------|
C#|--------------------|
G#|--------------------|
C#|-3p2p0-3p0--0-0-0-0-|


Eb|-17b-17b-17b-17b-17b-17b-|
Bb|-20b-20b-20b-20b-20b-20b-|
F#|-------------------------|
C#|-------------------------|
G#|-------------------------|
C#|-------------------------|


2.)Disciple
Tune down 1.5 steps 


Riff 1 
|----------------|
|----------------|
|----------------|
|----------------|
|-5-2--5-8--5-2--|
|-3-0--3-6--3-0--|


Riff 2          
p.m......     play 8x
|----------------|
|----------------|
|----------------|
|----------9-----|
|------------8-7-|
|-000-000--------|


Walkback (p.m. on A string)
|-------------------|
|-------------------|
|-------------------|
|-9-----8-----7-----|
|---8-7---7-6---6-5-|
|-------------------|

Riff 3 
p.m...............
|-----------------|
|-----------------|
|-----------------|
|-----------------|
|-----------------|
|-3-3-2-0-3-4-3-0-|

Chorus 1 
Gtr. 1
p.m.....................................
|---------------------------------------|
|---------------------------------------|
|---------------------------------------|
|---------------------------------------|
|---------------------------------------|
|-000-000---000-000---000-000---000-000-|
|                                       |
|Gtr. 2                                 |
|(w/ fast chorus/detune type effect)    |
|---------------------------------------|
|---------------------------------------|
|-8b~~~~8b~~~~8b~~~~8b~~~~8b~~~~8b~~~~~-|
|---------------------------------------|
|---------------------------------------|
|---------------------------------------|

Riff 4 
p.m...............
|-----------------|
|-----------------|
|-----------------|
|-----------------|
|-----------------|
|-1-1/4-4-000-000-|

Chorus 2 
Gtr. 1
p.m.........................................................................
|-------------------------------------|-------------------------------------|
|-------------------------------------|-------------------------------------|
|-------------------------------------|-------------------------------------|
|-------------------------------------|-------------------------------------|
|-------------------------------------|-------------------------------------|
|000-000---000-000---000-000---000-000|000-000---000-000---000-000---000-000|
|                                    |                                       |
|Gtr. 2                               |                                       |
|p.m....................................|(w/ fast chorus/detune type effect)    |
|--------------------------------------|------------------------------------|
|--------------------------------------|------------------------------------|
|--------------------------------------|8b~~~~8b~~~~8b~~~~8b~~~~8b~~~~8b~~~~|
|--------------------------------------|------------------------------------|
|--------------------------------------|------------------------------------|
|-0-0-0-0-0-0-0-0-0-0-0-0-0-0-0-0-0-0-0|------------------------------------|

Solo 
  ph  ph
|-19^-19^-16161617191716-1414151715141514----------------------------|
|------------------------------------------1714141517171514----------|
|-----------------------------------------------------------161416~/-|
|--------------------------------------------------------------------|
|--------------------------------------------------------------------|
|--------------------------------------------------------------------|

w/wah
|-----------------------------------------------------141415171514------|
|---------------------------------------------141517-------------171514-|
|--------------------------14-----1415--141517--------------------------|
|--------14----1415--141517---1517----17--------------------------------|
|--141517--1517----17---------------------------------------------------|
|-----------------------------------------------------------------------|

|----------------------------|
|----------------------------|
|-161416~-16~-16~-16/--------|
|----------------------------|
|----------------------------|
|-----------------------19//-|

1st Breakdown  
(32nd notes throughout I believe)
p.m.........................
|---------------------------|
|---------------------------|
|---------------------------|
|---------------------------|
|---------------------------|
|-3-0-3-0-3-2---3-0-3-0-3-6-|

Riff 5 
p.m..............
|----------------|
|----------------|
|----------------|
|----------------|
|-----------7777-|
|-000000000------|

Riff 6 
p.m.....................
|-----------------------|
|-----------------------|
|-----------------------|
|-----------------------|
|-----------------------|
|-55555-44444-0000-11111|

Riff 7 (I never said......) 
p.m......................................
|---------------------------------------|
|---------------------------------------|
|---------------------------------------|
|---------------------------------------|
|---------------------------------------|
|-0000-3333-22222-0000-22-333-7777-6666-|

Riff 8      
|----------------------------------|
|----------------------------------|
|-------------------------fdbk-----|
|----------------------------------|
|--2--5--4--2-4-5--9--8----(8)-----|
|--0--3--2--0-2-3--7--6----(6)-----|

Breakdown 2 
part 1 
p.m....................................
|--------------------------------------|
|--------------------------------------|
|--------------------------------------|
|--------------------------------------|
|--------------------------------------|
|--3-3-3--6-6-6--2-2-2-2-2-2-2-2-2-2-2-|

part 2
p.m...................................
|-------------------------------------|
|-------------------------------------|
|-------------------------------------|
|-------------------------------------|
|-------------------------------------|
|--3-3-3--6-6-6--5-5-5--2-2-2-2-2-2-2-|

part 3
p.m.....................................
|--------------------------------------|
|--------------------------------------|
|--------------------------------------|
|--------------------------------------|
|--------------------------------------|
|--3-3-3--6-6-6--5-5-5--6-6-6--2-2-2-2-|

part 4
p.m....................................
|--------------------------------------|
|--------------------------------------|
|--------------------------------------|
|--------------------------------------|
|--------------------------------------|
|--3-3-3--6-6-6--2-2-2-2-2-2-2-2-2-2-2-|

Riff 9 
part 1
|--------------------------------------|
|--------------------------------------|
|--------------------------------------|
|--------------------------------------|
|--5-5-5--8-8-8--4-4-4-4-4-4-4-4-4-4-4-|
|--3-3-3--6-6-6--2-2-2-2-2-2-2-2-2-2-2-|

part 2
|-------------------------------------|
|-------------------------------------|
|-------------------------------------|
|-------------------------------------|
|--5-5-5--8-8-8--7-7-7--4-4-4-4-4-4-4-|
|--3-3-3--6-6-6--5-5-5--2-2-2-2-2-2-2-|

part 3
|--------------------------------------|
|--------------------------------------|
|--------------------------------------|
|--------------------------------------|
|--5-5-5--8-8-8--7-7-7--8-8-8--4-4-4-4-|
|--3-3-3--6-6-6--5-5-5--6-6-6--2-2-2-2-|

part 4          p.m.................(pm last time only)
|--------------------------------------|
|--------------------------------------|
|--------------------------------------|
|--------------------------------------|
|--5-5-5--8-8-8--4-4-4-4-4-4-4-4-4-4-4-|
|--3-3-3--6-6-6--2-2-2-2-2-2-2-2-2-2-2-|


3.)God Send Death

Tune guitars down 1  steps
6=C# 3=E
5=F# 2=G#
4=B  1=C#


INTRO                                     __________________________________________________________
gtr I                                    |1st time        |2nd time
----------------------------------------------------------|------------------
----------------------------------------------------------|------------------
----------------------------------------------------------|------------------
----------------------------------------------------------|------------------
7-------7-------8-------10------7-------14------13-------8|15----14----8-----
0-------0-------0-------0-------0-------0-------0--------0|0-----0-----0-----
                                          __________________________________________________
gtr II                                   |1st time                |2nd time (gtrs II & III)
----------------------------------------------------------|------------------
----------------------------------------------------------|------------------
----------------------------------------------------------|------------------
----------------------------------------------------------|------------------
----------------------------------------------------------|----------5-4---3-
----------------------------------------------------------|----------3-2---1-

gtr I
-----------------------------------------------------------------
-----------------------------------------------------------------
-----------------------------------------------------------------
-----------------------------------------------------------------
-7-------7-------8-------10------7-------14------6---5---3-------
-0-------0-------0-------0-------0-------0-------4---3---1-------
                                                         
gtr II                                                   
-----------------------------------------------------------------
-----------------------------------------------------------------
-----------------------------------------------------------------
-----------------------------------------------------------------
-2-----------------------------------------------6---5---3-------
-0-----------------------------------------------4---3---1-------


gtr I
-----------------------------------------------------------------
-----------------------------------------------------------------
-----------------------------------------------------------------
-----------------------------------------------------------------
-7-------7-------8-------10------6---5---3---5---6---10--9---6---
-0-------0-------0-------0-------4---3---1---3---4---8---7---4---
                                                         
gtr II                                                   
-----------------------------------------------------------------
-----------------------------------------------------------------
-----------------------------------------------------------------
-----------------------------------------------------------------
---------------------------------6---5---3---5---6---10--9---6---
---------------------------------4---3---1---3---4---8---7---4---

gtr I & II (gtr III plays whsound backside)
 P.M._____________________________________________________________________|
---------------------------------------------------------------------------
---------------------------------------------------------------------------
---------------------------------------------------------------------------
---------------------------------------------------------------------------
2-2--2-2--2-2--2-2--2-2--2-2--2-2--2-2--2-2--2-2--2-2--2-2--2-2--2-2--2-2--
0-0--0-0--0-0--0-0--0-0--0-0--0-0--0-0--0-0--0-0--0-0--0-0--0-0--0-0--0-0--

VERSERIFF ("On your back look on to me......")
 P.M._________________________________________________________|
-----------------------------------------------------------------
-----------------------------------------------------------------
-----------------------------------------------------------------
-----------------------------------------------------------------  x3
-7---7---7---7---8---8---10--10--14--14--14--14--13--13--8---8---
-0---0---0---0---0---0---0---0---0---0---0---0---0---0---0---0---

 ("God send death end misery......")
 let ring.................................................
-----------------------------------------------------------------
-----------------------------------------------------------------
-----------------------------------------------------------------
---------9-------------------------------9-------8---------------
-7---------------8-------10------7-----------------------8-------
(0)-0-0-(0)-0-0-(0)-0-0-(0)-0-0-(0)-0-0-(0)-0-0-(0)-0-0-(0)-0-0--

 let ring..................|
-----------------------------------------------------------------
-----------------------------------------------------------------
-----------------------------------------------------------------
---------9-------------------------------10------9---------------
-7---------------8-------10------7-----------------------8-------
(0)-0-0-(0)-0-0-(0)-0-0-(0)-0-0-(0)----------------------6-------


CHORUSRIFF
---------------------------------
---------------------------------
---------------------------------
-9----9-9---9------9-----8-------  x8
-7----7-7---7----7----------9-5--
-0----0-0---0--------------------


VERSERIFF
 P.M._________________________________________________________|
-----------------------------------------------------------------
-----------------------------------------------------------------
-----------------------------------------------------------------
-----------------------------------------------------------------  x3
-7---7---7---7---8---8---10--10--14--14--14--14--13--13--8---8---
-0---0---0---0---0---0---0---0---0---0---0---0---0---0---0---0---

 let ring.................................................
-----------------------------------------------------------------
-----------------------------------------------------------------
-----------------------------------------------------------------
---------9-------------------------------9-------8---------------
-7---------------8-------10------7-----------------------8-------
(0)-0-0-(0)-0-0-(0)-0-0-(0)-0-0-(0)-0-0-(0)-0-0-(0)-0-0-(0)-0-0--

 let ring..................|
-----------------------------------------------------------------
-----------------------------------------------------------------
-----------------------------------------------------------------
---------9-------------------------------10------9---------------
-7---------------8-------10------7-----------------------8-------
(0)-0-0-(0)-0-0-(0)-0-0-(0)-0-0-(0)----------------------6-------

CHORUSRIFF
                 _______________________________
                |1-7   times     |8th time
---------------------------------|--------------
---------------------------------|--------------
---------------------------------|--------------
-9----9-9---9------9-----8-------|--------------
-7----7-7---7----7----------9-5--|-6--5--3------
-0----0-0---0--------------------|-4--3--1------


effect guitar 1 time (Plays: G   E   F A#  A)
then after little drumfill:

("Clawing at the eyes of god you taste your death in hand......")

 P.M._________________________________________________________|
-----------------------------------------------------------------
-----------------------------------------------------------------
-----------------------------------------------------------------
-----------------------------------------------------------------  x4
-5---5---5---2---2---2---3---3---8---8---8---7---7---7---7---7---
-3---3---3---0---0---0---1---1---6---6---6---5---5---5---5---5---


 G           E           F              G# G  F  G  G# C  B  G#
-----------------------------------    -------------------------
-----------------------------------    -------------------------
-----------------------------------    -------------------------
----------------------------------- x3 -------------------------
-5-----5-5---2-----2-----3---------    -6--5--3--5--6--10-9--6--
-3-----3-3---0-----0-----1---------    -4--3--1--3--4--8--7--4--


SOLOPART
RIFF
 F#      C#      F#      C       F#      C#      A#      G
------------------------------------------------------------------
------------------------------------------------------------------
------------------------------------------------------------------ 
------------------------------------------------------------------ x4
---------44444444--------33333333--------44444444-----------------
-22222222--------22222222--------22222222--------6666666633333333-

gtr I
   P.M._________
-----------------
-----------------
-----------------
-----------------
-4---------------
-2-1-0-1-0-2-0-1-
                    x3
gtr II
-----------------
-----------------
-----------------
-4---------------
-4---------------
-2---------------

 F#       C#      G       A       F#      C#      A#      F
-------------------------------------------------------------------
-------------------------------------------------------------------
-------------------------------------------------------------------
-------------------------------------------------------------------
----------44444444------------------------44444444-----------------
-222222222--------333333335555555522222222--------6666666611111111-

 F#       C#      G       A       F#      C#      A#      G
-------------------------------------------------------------------
-------------------------------------------------------------------
-------------------------------------------------------------------
-------------------------------------------------------------------
----------44444444------------------------44444444-----------------
-222222222--------333333335555555522222222--------6666666633333333-


gtr I
   P.M._________
-----------------
-----------------
-----------------
-----------------
-4---------------
-2-1-0-1-0-2-0-1-

                    x4
gtr II
-----------------
-----------------
-----------------
-4---------------
-4---------------
-2---------------

 F#       C#      C       A       F#      C#      A#      A
-------------------------------------------------------------------
-------------------------------------------------------------------
-------------------------------------------------------------------
-------------------------------------------------------------------
----------4444444433333333----------------44444444-----------------
-222222222----------------5555555522222222--------6666666655555555-

gtr I
   P.M._________
-----------------
-----------------
-----------------
-----------------
-4---------------
-2-1-0-1-0-2-0-1-

                    x3
gtr II
-----------------
-----------------
-----------------
-4---------------
-4---------------
-2---------------

 F#       C#      G       A       F#      C#      A#      F
-------------------------------------------------------------------
-------------------------------------------------------------------
-------------------------------------------------------------------
-------------------------------------------------------------------
----------44444444------------------------44444444-----------------
-222222222--------333333335555555522222222--------6666666611111111-


VERSE ("Death's design blood splattered wall......")
 let ring.................................................
-----------------------------------------------------------------
-----------------------------------------------------------------
-----------------------------------------------------------------
---------99-9----------------------------99-9----88-8------------
-77-7------------88-8----101010--77-7--------------------88-8----
(0)-0-0-(0)-0-0-(0)-0-0-(0)-0-0-(0)-0-0-(0)-0-0-(0)-0-0-(0)-0-0--

 let ring..................|
--------------------------------------------------------------------
--------------------------------------------------------------------
--------------------------------------------------------------------
---------99-9-------------------------------------------------------
-77-7------------88-8----101010--8----8----8----8----8----8---------
(0)-0-0-(0)-0-0-(0)-0-0-(0)-0-0--6----6----6----6----6----6---------

-----------------------------------------------------------------
-----------------------------------------------------------------
-----------------------------------------------------------------
---------99-9----------------------------99-9----88-8------------
-77-7------------88-8----101010--77-7--------------------88-8----
(0)-0-0-(0)-0-0-(0)-0-0-(0)-0-0-(0)-0-0-(0)-0-0-(0)-0-0-(0)-0-0--

-----------------------------------------------------------------
-----------------------------------------------------------------
-----------------------------------------------------------------
---------99-9----------------------------10------9---------------
-77-7------------88-8----101010--7-----------------------8-------
(0)-0-0-(0)-0-0-(0)-0-0-(0)-0-0-(0)----------------------6-------

CHORUSRIFF
                 _______________________________
                |1, 2, 3 times   |4th time
---------------------------------|--------------
---------------------------------|--------------
---------------------------------|--------------	
-9----9-9---9------9-----8-------|--------------	
-7----7-7---7----7----------9-5--|-6--5--3------
-0----0-0---0--------------------|-4--3--1------

 
4.)New Faith 
tuning-down one and a half steps: low to high, C# F# B E 
G# C#.


Riff 1: Intro/Verse"Holy man open up your eyes..."
E|---------------------------
B|---------------------------
G|---------------------------
D|-2-2-2-2-2-2-2-2-3---6---5-
A|-2-2-2-2-2-2-2-2-3---6---5-
E|-0-0-0-0-0-0-0-0-1-0-4-0-3-


Riff 2: Bridge "Tell me how it feels..."
E|---------------------------------------------------
B|---------------------------------------------------
G|---------------------------------------------------
D|---------------------------------------------------
A|-------------------------------------------------2-
E|-2-4-5-2-4-5-2-4-5-2-4-5-2-4-5-2-4-5-2-4-5-2-4-5---


Riff 3: Chorus "Welcome to the horror..."
E|-------------------------------------------------------------------------------------------------------
B|-------------------------------------------------------------------------------------------------------
G|----------------------------------------------------------------Last time 
finish on:-------------------
D|---------------------------------------------------------3-6-------------------------6-6-6-6-6-6-6-6-6-
A|---7-6-5---7-6-5---7-6-5---7-6-5---7-6-5---7-6-5---7-6-5-3-6-------------------------6-6-6-6-6-6-6-6-6-
E|-0-0-0-0-0-0-0-0-0-0-0-0-0-0-0-0-0-0-0-0-0-0-0-0-0-0-0-0-1-4-------------------------4-4-4-4-4-4-4-4-4-


Riff 4: "This is new faith..."
E|---------------------------------------------------------------------------------------
B|---------------------------------------------------------------------------------------
G|-----------------------------------Play 3 more times 
then:-----------------------------
D|-------------------------------------------------------------------------------------8-
A|-5-7h---------5-7h-----------------------------------------5-7h---------5-7h---------8-
E|------0-0-0-0------0-0-0-0-0-0-0-0------------------------------0-0-0-0------0-0-0-0-6-


Riff 5: "Pray for life..."
E|------------------------------------------------------------------------------------------------------
B|------------------------------------------------------------------------------------------------------
G|------------------------------------------------------------------------------------------------------
D|-8--7--------------5--8--8--7--------------8--5--8--7--------------5--8--8--7--------------6--3--6--5-
A|-8--7--------------5--8--8--7--------------8--5--8--7--------------5--8--8--7--------------6--3--6--5-
E|-6--5--5-5-5-5-5-5-3--6--6--5--5-5-5-5-5-5-6--3--6--5--5-5-5-5-5-5-3--6--6--5--5-5-5-5-5-5-4--1--4--3-


Riff 6: Repeat Riff 4 and Riff 5 twice then go into the "Pray for 
death...embrace new faith..."
E|--------------------------------------------------------------------------
B|--------------------------------------------------------------------------
G|----------------------------Play 3 more times then:-----------------------
D|-6--3--6--5-----------------------------------------6--3--3--2----3-3-3-3-
A|-6--3--6--5-----------------------------------------6--3--3--2----3-3-3-3-
E|-4--1--4--3--0-0-0-0-0-0-0--------------------------4--1--1--0----1-1-1-1-


Riff 7: "Yeah! New faith!"
E|---------------------------------------------
B|-One guitar doesn't play the last chord (Bm)-
G|---------------------------------------------
D|-2---2-3--6--5----2---2-3--8-----------------
A|-2---2-3--6--5----2---2-3--8-----------------
E|-0---0-1--4--3----0---0-1--6-----------------

Finish on:
E|--------
B|--------
G|--------
D|-2--2-3-
A|-2--2-3-
E|-0--0-1-


5.)Cast Down

Tuning B (7 Strings King & 6 Strings low tuned Hanneman)

 RIFF 1 INTRO x1

|KING
|---------------------------------|---------------------------------|
|---------------------------------|---------------------------------|
|---------------------------------|---------------------------------|
|---------------------------------|---------------------------------|
|---------------------------------|---------------------------------|
|-8-------8-------7-------6-------|-8-------7-------6-------6-------|
|-6-0-0-0-6-0-0-0-5-0-0-0-4-0-0-0-|-6-0-0-0-5-0-0-0-4-0-0-0-4-0-0-0-|
    . . .   . . .   . . .   . . .     . . .   . . .   . . .   . . .


|BOTH
|---------------------------------|---------------------------------|
|---------------------------------|---------------------------------|
|---------------------------------|---------------------------------|
|---------------------------------|---------------------------------|
|---------------------------------|---------------------------------|
|-8-------8-------7-------6-------|-8-------7-------6-------5-6-----|
|-6-0-0-0-6-0-0-0-5-0-0-0-4-0-0-0-|-6-0-0-0-5-0-0-0-4-0-0-0-3-4-----|
    . . .   . . .   . . .   . . .     . . .   . . .   . . .

|BOTH
|---------------------------------|---------------------------------|
|---------------------------------|---------------------------------|
|---------------------------------|---------------------------------|
|---------------------------------|---------------------------------|
|---------------------------------|---------------------------------|
|-8-------8-------7-------6-------|-8-------7-------6-------6-------|
|-6-0-0-0-6-0-0-0-5-0-0-0-4-0-0-0-|-6-0-0-0-5-0-0-0-4-0-0-0-4-0-0-0-|
    . . .   . . .   . . .   . . .     . . .   . . .   . . .   . . .

|BOTH
|---------------------------------|---------------------------------|
|---------------------------------|---------------------------------|
|---------------------------------|---------------------------------|
|---------------------------------|---------------------------------|
|---------------------------------|---------------------------------|
|-8-------8-------7-------6-------|-8-------7-------6-------5-6-----|
|-6-0-0-0-6-0-0-0-5-0-0-0-4-0-0-0-|-6-0-0-0-5-0-0-0-4-0-0-0-3-4-----|
    . . .   . . .   . . .   . . .     . . .   . . .   . . .

RIFF 2 INTRO x2
|-------------------------------------------------|
|-------------------------------------------------|
|-------------------------------------------------|
|-------------------------------------------------|
|-------------------------------------------------|
|-2-2---3-2---2-2---3-2---2-2---3-2---7-6---2-3---|
|-0-0---1-0---0-0---1-0---0-0---1-0---5-4---0-1---|

 RIFF 3 BREAK x1
|-------------------------------------------------|
|-------------------------------------------------|
|-------------------------------------------------|
|-------------------------------------------------|
|-------------------------------------------------|
|-2-2---2-2---2-2---2-2---2-2---2-2---2-2---------|
|-0-0---0-0---0-0---0-0---0-0---0-0---0-0---------|
     x     x     x     x     x     x     x

 RIFF 4 VERSE x4
|-------------------------|
|-------------------------|
|-------------------------|
|-------------------------|
|-3-----------------------|
|-1-2---------------------|
|---0-0-0-0--0-0-0--1-1-1-|
      . . .  . . .  . . .

 RIFF 5 VERSE x4
|-------------------------|-------------------------|
|-------------------------|-------------------------|
|-------------------------|-------------------------|
|-------------------------|-------------------------|
|-3-----------------------|-3-----------------------|
|-1-2---------5-2---------|-1-2---------5-2---3---5-|
|---0-0-0-0-0-3-0-0-0-0-0-|---0-0-0-0-0-3-0---1---3-|
      . . . .     . . . .       . . . .

 FILL 1
|-------------------------------------|
|-------------------------------------|
|-------------------------------------|
|-------------------------------------|
|-------------------------------------|
|-2-------3---2-------3---2h3-2h3-2h3-|
|-0-------1---0-------1---0h1-0h1-0h1-|

 RIFF 5 VERSE x4

 RIFF 6 BRIDGE x5
|-------------------|-------------------|
|-------------------|-------------------|
|-------------------|-------------------|
|-------------------|-------------------|
|-----3---2---------|-------------------|
|-2---1---0---2-----|-5---8-7-5-2-5-4---|
|-0-----------0-----|-3---6-5-3-0-3-2---|

 RIFF 2 CHORUS x2

 RIFF 3A BREAK x1
|-------------------------------------|
|-------------------------------------|
|-------------------------------------|
|-------------------------------------|
|-------------------------------------|
|-2-2---2-2---2-2---2-2---2-2---2-2---|
|-0-0---0-0---0-0---0-0---0-0---0-0---|
     x     x     x     x     x     x

 SOLO KING
  WAH & BAR WAH & BAR/\/\/\/\/\/\/\/\/\/\/\/\ WAH & BAR        WAH & BAR
|-------------------------------------------------------------------------|
|-------------------------------------------------------------------------|
|-------------------------------------------------------------------------|
|-0\\\\\\\\h4p2p0h4p2p0h4p2p0h5p4p0h5p4p0h5p4p0////\\\\\\\\----4p2p04p2p0-|
|-------------------------------------------------------------------------|
|-------------------------------------------------------------------------|
|-------------------------------------------------------------------------|

  WAH & BAR/\/\/\/\/\/\/\ BAR     WAH_________________________ WAH & BAR
|---------------------------------------------------------------------|
|---------------------------------------------------------------------|
|---------------------------------------------------------------------|
|-h4p2p0h5p4p0h5p4p0h5p4p0\\\\---/7fb^^^7^7^7^^7^7^7^^7^7^7^^rp0\\\\--|
|---------------------------------------------------------------------|
|---------------------------------------------------------------------|
|---------------------------------------------------------------------|
                                         x x x  x x x  x x
  WAH & BAR/\ WAH & BAR/\/\ WAH & BAR/\/\/\ WAH__________      N.H. BAR
|------------------------------------------------------------------------------|
|------------------------------------------------------------------------------|
|------------------------------------------------------------------------------|
|-5h7h8p5h7h8-7h8h10p7h8h10-8h10h11p8h10h11-131313131313b^^^^//15//\/\/\/\\----|
|------------------------------------------------------------------------------|
|------------------------------------------------------------------------------|
|------------------------------------------------------------------------------|


 RIFF 7 x8 UNDER SOLO
|---------------------------------|
|---------------------------------|
|---------------------------------|
|---------------------------------|
|-2-2-----------------------------|
|-0-0-----------------------------|
  .

 RIFF 3A BREAK x1

 RIFF 4 VERSE x4

 RIFF 5 VERSE x4


 FILL 1A
|-----------------------------------------|
|-----------------------------------------|
|-----------------------------------------|
|-----------------------------------------|
|-----------------------------------------|
|-2-------3---2-------3---2h3-2h3-2h3-2h3-|
|-0-------1---0-------1---0h1-0h1-0h1-0h1-|


 RIFF 6 BRIDGE x8

 RIFF 2 CHORUS x2

 RIFF 3 BREAK x1

6.)Threshold

tune to Db  1 1/2 steps down 
 
 intro 
 e----------------------------------- 
 b----------------------------------- 
 g----------------------------------- 
 d----------------------------------- 
 a----------------------------------- 
 e-2-1-0-1-0--2-1-0--2-1-0-1-0--2-1-0   play twice 
[ Tab from: http://www.guitaretab.com/s/slayer/75946.html ]
 interlude 
 e--------------------------------------------------
 b--------------------------------------------------
 g--------------------------------------------------
 d-------------------------------------------------- 
 a-------------------------------------------------- 
 e-3-2-0-3-2-0-3-2-0-3-2-0---3-2-0-3-2-0-3-2-0-3-2-0 repeat 

 verse - variation on intro  
 e-----------------------------------------
 b-----------------------------------------
 g-----------------------------------------
 d----------------------------------------- 
 a----------------------------------------- 
 e--2-1-0-1-0--2-1-0--2-1-0-1-0-1-0--2-1-0-  repeat 

 2nd verse 
 e----------------------------------
 b----------------------------------
 g----------------------------------
 d---------------------------------- 
 a---------------------------------- 
 e-1-0-0--0-1-0-0--0-1-0-0--0-1-0-0- 

 fill 
        harmonics 
 e-----(5)--------- 
 b-----(5)--------- 
 g-----(5)--------- 
 d-----wammy bar dive then pull up.. listen to cd 
 a----------------- 
 e----------------- 

 e---------------------------
 b---------------------------
 g---------------------------
 d--------------------------- 
 a--------------------------- 
 e--1--0-0-0-0-0-1--0--1-0-1- 


 those are all the riffs in the song.

7.)Exile

This is a rough one.  It takes a lot of coordination.
 Good luck,  you'll get it.

 -|--------------------------------|-------------------|---|-----------------|-
 -|--------------------------------|-------------------|---|-----------------|-
 -|--------------------------------|-------------------|---|-----------------|-
 -|--------------------------------|-------------------|-3x|-8---------------|-
 -|--------------------------------|-------------------|---|-8---------------|-
 -|-000-000-000-0-000-0-000-000-000|-000-0-000-000-000-|---|-6---------------|-
   Intro                                                     end               
 -|-------------------------|----------------------|-------------------------|-
 -|-------------------------|----------------------|-------------------------|-
 -|-------------------------|----------------------|-------------------------|-
 -|-------------------------|----------------------|-------------------------|-
 -|-8h11p8-8----------------|8h11p8-8--------------|-8h11p8-8----------------|-
 -|----------000-000-0-000-0|---------000-000-0-0--|---------000-000-0-000-0-|-
   Verse  (riff 1)                                                             

 -|-------------------------||-----------------|-----------------------------|-
 -|-------------------------||-----------------|-----------------------------|-
 -|-------------------------||-----------------|-----------------------------|-
 -|-------------------------||--4-3---5-4------|-----------------------------|-
 -|-8h11p8-8----------------||--2-1-4-3-2-5----|--------1--0-----------------|-
 -|----------000-000-0-0----||-0----2-----3----|-0-1--3------3--2------------|-
   verse (cont)               Ending 1           Ending 2                      

 -|--------------------------|--------------------------|---|----------------|-
 -|--------------------------|--------------------------|---|----------------|-
 -|--------------------------|--------------------------|---|----------------|-
 -|--------------------------|--------------------------|-2x|----------------|-
 -|-3-2---------3-----3---3--|-3-2--------3-----3---5---|---|-------1-0------|-
 -|-1-0-000000--1-0-0-1-0-1-0|-1-0-000000-1-0-0-1-0-3-0-|---|-0-1-3-----3-2--|-
   Just to get rid of you                                                      

 -|-----------------|-----|-------------------|--------|---------------------|-
 -|-----------------|-----|-------------------|--------|---------------------|-
 -|-----------------|-----|-------------------|-4------|---------------------|-
 -|-----------------|-2---|-------------------|-4------|---------------------|-
 -|---------1-0-----|-2---|---------1--0------|-2------|----------1--0-------|-
 -|-0--1--3-----3-2-|-0---|-0--1--3------3--2-|-2------|-0--1---3------3--2--|-
   My hate is contageous (pre-chorus) 1                                        

 -|----------------------------------------------|---|-----------------------|-
 -|----------------------------------------------|---|-----------------------|-
 -|----------------------------------------------|---|-----------------------|-
 -|----------------------------------------------|-4x|-----------------------|-
 -|----------------------------------------------|---|-----------------------|-
 -|-0-0-0--0-0-0--0-0-0--0--0-0-0--0-0-0-0-0-0---|---|-----------------------|-
   Exile !!!!!  (chorus)                                                       

 -|----------------------|----------------------|---------------|-----------|--
 -|----------------------|----------------------|---------------|-----------|--
 -|----------------------|-------------------4--|---------------|-----------|--
 -|---------------------2|-------------------4--|--------------2|-----------|--
 -|---------1--0--------2|--------1-0--------2--|------1-0-----2|-------1-0-|--
 -|-0--1--3------3--2---0|-0-1--3------3--2--2--|-0-1-3----3-2-0|-0-1-3-----|--
    My hate is contageous (pre-chorus) 2                                       

 -|--------|-----------------|-----------------------------------------------|-
 -|--------|-----------------|-----------------------------------------------|-
 -|-----5--|-----------------|-----------------------------------------------|-
 -|-----5--|-----------------|-----------------------------------------------|-
 -|-----3--|--------1--0-----|-----------------------------------------------|-
 -|-3-2-3--|-0-1--3------3--2|-----------------------------------------------|-
                                                                               

 -|------------------------------------------------------|-----|-------------|-
 -|------------------------------------------------------|-----|-------------|-
 -|-12\--------------------------------------------------|-----|-------------|-
 -|-12\--------------------------------------------------|-3x--|-------------|-
 -|-10\--2-2--2-2--2-2--2-2--2-2--2-2----------1--0------|-----|-------------|-
 -|-10\--0-0--0-0--0-0--0-0--0-0--0-0--0--1--3------3--2-|-----|-------------|-
   Solo riff 1                                                                 

 -|----------------------|--------------------------------|------------------|-
 -|----------------------|--------------------------------|------------------|-
 -|-12\------------------|-12\----------------------------|------------------|-
 -|-12\--2-2--2-2--2-2-2-|-12\--2-2--2-2------------------|------------------|-
 -|-10\--2-2--2-2--2-2-2-|-10\--2-2--2-2---------1-0------|------------------|-
 -|-10\--0-0--0-0--0-0-0-|-10\--0-0--0-0--0-1--3-----3-2--|------------------|-
   Solo riff 1 end                                                             

 -|-------------------------------------------------------------------|------|-
 -|-------------------------------------------------------------------|------|-
 -|----------------------------------------------4--------------------|------|-
 -|----------------------------------------------4--------------------|-4x---|-
 -|----------------------------------------------2----------1--0------|------|-
 -|-00000--000--00000--000--000--00000--000-0000-2--0--1--3------3--2-|------|-
   solo riff 2                                                                 

 -|----------------------------|-----------------|---------------------------|-
 -|----------------------------|-----------------|---------------------------|-
 -|----------------------------|-----------------|---------------------------|-
 -|----------------------------|-----------------|---------------------------|-
 -|----------------------------|-22222--222--22--|---------------------------|-
 -|-00000--000--00000--000--000|-00000--000--00--|---------------------------|-
   solo riff 2 end               with drums (crunch                            

 -|---------------------------------|------|---------------------------------|-
 -|---------------------------------|------|---------------------------------|-
 -|---------------------------------|------|---------------------------------|-
 -|---------------------------------|-4x---|---------------------------------|-
 -|---------------------------------|------|---------------------------------|-
 -|-0--00--000-0--000--0-0--000--000|------|---------------------------------|-
   there nothing more for you to say        then play chorus 3x, 4th is drums  

 -|----------------------------------|-------------------------|-------------|-
 -|----------------------------------|-------------------------|-------------|-
 -|----------------------------------|-------------------------|-------------|-
 -|----------------------------------|-------------------------|-------------|-
 -|----------------------------------|-------------------------|-------------|-
 -|-000-2/3--000--0000--000--0--000-0|-2/3-00--00--00-3-2-1-1--|-------------|-
   Can't count the ways that you light my fuckin fuse                          

 -|------------------|----------------|-----------------|--------------------|-
 -|------------------|----------------|-----------------|--------------------|-
 -|------------------|----------------|-----------------|--------------------|-
 -|------------------|----------------|-----------------|--------------------|-
 -|-----------1-0----|---------1-0----|----------1-0----|---------1-0--------|-
 -|-000-0-1-3-----3-2|-000-1-3-----3-2|-00-0-1-3-----3-2|-0-0-1-3-----3-2----|-
                                                                               

 -|----------------------------------------------------|------|--------------|-
 -|----------------------------------------------------|------|--------------|-
 -|-12\------------------------------------------------|------|--------------|-
 -|-12\--2-2--2-2--2-2--2-2--2-2--2-2------------------|-2x---|--------------|-
 -|-10---2-2--2-2--2-2--2-2--2-2--2-2---------1-0------|------|--------------|-
 -|-10\--0-0--0-0--0-0--0-0--0-0--0-0--0-1--3-----3-2--|------|--------------|-
   End      1                                                                  

 -|----------------------------------------------------|-------|-------------|-
 -|----------------------------------------------------|-------|-------------|-
 -|-12\------------------------------------------------|-------|-------------|-
 -|-12\------------------------------------------------|--1x---|-------------|-
 -|-10\--2-2--2-2--2-2--2-2--2-2--2-2---------1-0------|-------|-------------|-
 -|-10\--0-0--0-0--0-0--0-0--0-0--0-0--0-1--3-----3-2--|-------|-------------|-
                                                                               

 -|-----------------------------------------------------|-------|------------|-
 -|-----------------------------------------------------|-------|------------|-
 -|-12\-------------------------------------------------|-------|------------|-
 -|-12\--2\-/2---2\-/2---2\-/2--------------------------|--1x---|------------|-
 -|-10\--2\\/2---2\\/2---2\\/2----------1-0-------------|-------|------------|-
 -|-10\--0\\/0---0\\/0---0\\/0--0--1--3-----3-2---------|-------|------------|-
           \       \       \                                                   

 -|------------------------------------------------------|------|------------|-
 -|------------------------------------------------------|------|------------|-
 -|-12\--------------------------------------------------|------|------------|-
 -|-12\--2\----------------------------------------------|--1x--|------------|-
 -|-10\--2\------------------------------1--0------------|------|------------|-
 -|-10\--0\----------------------0--1--3------3--2-------|------|------------|-
          depress gradually                                                    

 -|---------------------------|----------------------------------------------|-
 -|---------------------------|----------------------------------------------|-
 -|---------------------------|----------------------------------------------|-
 -|---------------------------|----------------------------------------------|-
 -|--------------------2-2----|----------------------------------------------|-
 -|-0000000--0000--000-0-0----|----------------------------------------------|-
    with snare drum

8.)Seven Faces

I'll post the solo later,  I don't have time right now.  If you have any
request please let me know.

-|------------|----------|--------------------------------------------------|-
-|------------|----------|--------------------------------------------------|-
-|------------|----------|--------------------------------------------------|-
-|---7--------|---7------|--------------------------------------------------|-
-|-----7-8----|-----7-8-7|--------------------------------------------------|-
-|-0----------|-0--------|--------------------------------------------------|-
  Intro (clean tone w/flanger )                                               

-|--------------------------------------------------------------------------|-
-|--------------------------------------------------------------------------|-
-|--------------------------------------------------------------------------|-
-|-7----6-----3----6--3--6--3-----------------------------------------------|-
-|-7----6-----3----6--3--6--3-----------------------------------------------|-
-|-5----4-----1----4--1--4--1-----------------------------------------------|-
  Riff 2                                                                      

-|-------------------|----------------|-----------------|-------------------|-
-|-------------------|----------------|-----------------|-------------------|-
-|-------------------|----------------|-----------------|-------------------|-
-|-------------------|----------------|-----------------|-------------3-----|-
-|-------------------|----------------|-----------------|-------------3-----|-
-|-3-1-0-1-4-3--0-1--|-0-3-0-1-4-3-0-1|-3-1-0-1-4-3-0-1-|-0-3-0-1-4-3-1-----|-
  main riff and verse                                                         

-|-------------------|----------------|-----------------|-------------------|-
-|-------------------|----------------|-----------------|-------------------|-
-|-------------------|----------------|-----------------|-------------------|-
-|-------------------|----------------|-----------------|----------3---3----|-
-|-------------------|----------------|-----------------|----------3---3----|-
-|-3-1-0-1-4-3--0-1--|-0-3-0-1-4-3-0-1|-3-1-0-1-4-3-0-1-|-0-3-0-1--1---1----|-
  main riff and verse (cont)                                                  

-|-------------|---------------|---------|----------------------------------|-
-|-------------|---------------|---------|----------------------------------|-
-|-------------|---------------|---------|----------------------------------|-
-|-------------|---------------|-4x------|----------------------------------|-
-|-2-4--3--2---|-----5-4--3----|---------|----------------------------------|-
-|-0-2--1--0---|-0-0-3-2--1----|---------|----------------------------------|-
  lost within myself                                                          

-|-----------|---------------|----------|--------------|---|----------------|-
-|-----------|---------------|----------|--------------|---|----------------|-
-|-----------|---------------|----------|--------------|---|----------------|-
-|-----------|---------------|----------|--------------|-2x|----------------|-
-|-2-4-3--2--|-----4-3-2-----|-2-4-3-2--|-----5-4-3----|---|----------------|-
-|-0-2-1--0--|-0-0-2-1-0-----|-0-2-1-0--|-0-0-3-2-1----|---|----------------|-
  My life came with it's own scars   (riff 5)                                 

-|-------------------------------------|------|-----|-----------------------|-
-|-------------------------------------|------|-----|-----------------------|-
-|-------------------------------------|------|-----|-----------------------|-
-|-----8---7---------5--5-------3--3---|-4x---|-2---|-----------------------|-
-|-2---8---7----2----5--5---2---3--3---|------|-2---|-----------------------|-
-|-0---6---5----0----3--3---0---1--1---|------|-0---|-----------------------|-
  Everyday I look at the mirror                  Play intro then riff 5 solo  

-|--|-----------|----------|------------------------------------------------|-
-|--|-----------|----------|------------------------------------------------|-
-|--|-----------|-5-5-5-5--|------------------------------------------------|-
-|--|-3-3-3-3---|-5-5-5-5--|------------------------------------------------|-
-|--|-3-3-3-3---|-3-3-3-3--|------------------------------------------------|-
-|--|-1-1-1-1---|-3-3-3-3--|------------------------------------------------|-
 end  King       hanneman         I'll post solo later.


9.) Bloodline

Tunning-down half a step and drop the low string
D#
A#
F#
C#
G#
C#

Legend-   PM.-palm mute
          |-rest

Riff 1
D#-----------------------------------------------------
A#---------------------------------------------
F#-----------------------------------------------------
C#-----------------------------------------------------
G#--0--0-0--0-0--0-0--0--------------------------------
C#--0--0-3--3-2--2-1--1--------------------------------

Riff 2
D#-----------------------------------------------------
A#---------------------------------------------
F#-----------------------------------------------------
C#---------------------|-------------------------------
G#--0--0-0--0-0--0-0-2-|-2-----------------------------
C#--0--0-3--3-2--2-0-2-|-2-----------------------------

Riff 3 -play this riff with slow alternate picking.
D#-----------------------------------------------------
A#---------------------------------------------
F#-----------------------------------------------------
C#-----------------------------------------------------
G#-----------------------------------------------------
C#--0-0-0--0--0--0-0-0--0-0-0--------------------------
PM. . . .  .  .  . . .  . . .

Riff 4
D#-----------------------------------------------------
A#-----------------------------------------------------
F#-----------------------------------------------------
C#-----------------------------------------------------
G#------------0-2-4-3-5--------------------------------
C#--0-0-0--0--0-2-4-3-5--------------------------------
PM. . . .  .

Riff 5 -bridge
D#---------------------]-------------------------------
A#-----play-2-times----]-------------------------------
F#---------------------]-------------------------------
C#---------------------]-------------------|-----------
G#--0-1-0--2-1-2-3-2-1----0-1-0--2-1-2-3-2-|-----------
C#-----------------------------------------|-----------
PM. . . .  . . . . . .    . . .  . . . .

Riff 6 -2nd bridge, solo, & end riff
D#-----------------------------------------------------
A#---------------------------------------------
F#-----------------------------------------------------
C#-----------------------------------------------------
G#--3-4-3--5-4-5-6-5-4---------------------------------
C#--3-4-3--5-4-5-6-5-4---------------------------------

Riff 7
D#-----------------------------------------------------
A#-----------------------------------------------------
F#-----------------------------------------------------
C#-----------------------------------------------------
G#------0--0--0------0-----0-----0--0--0------0-----0--
C#--0-1-0--0--0--0-1-0-0-1-0-0-1-0--0--0--0-1-0-0-1-0--
PM. . . .  .  .  . . . . . . . . .  .  .  . . . . . .

Play riffs in this order-

riff1 x3
riff2 x5
riff3 x5
riff4 x1
riff3 x3
riff4 x1
riff3 x3
riff4 x1
riff3 x3
riff4 x1
riff1 x1
riff2 x1
riff1 x1
riff2 x1
riff3 x1
riff4 x1
riff3 x1
riff4 x1
riff3 x1
riff4 x1
riff3 x1
riff4 x1
riff1 x1
riff2 x1
riff1 x1
riff2 x1
riff5 x1
riff6 x16
riff7 x1
riff1 x1
riff2 x1
riff1 x1
riff2 x1
riff1 x1
riff2 x1
riff1 x1
riff2 x1
riff1 x1
riff2 x1
riff1 x1
riff2 x1(do not play the very last chord in this riff)
riff6 x8

10.)Deviance

Tuning Db

 RIFF 1 INTRO x6

|KING CLEAN WITH CHORUS AND TREMOLO EFFECTS
|-----------------------------------|
|-----------------------------------|
|-----------------------------------|
|-------3-4-3-----------------------|
|---3-----------2-----------3---2---|
|-0-----------------5---4-----------|
|
|
|HANNEMAN CLEAN WITH CHORUS AND TREMOLO EFFECTS
|-----------------------------------|
|-----------------------------------|
|-----------------------------------|
|-------8-9-8-----------------------|
|-7-8-----------7-----------8---7---|
|------------------10---9-----------|




 RIFF 2 INTRO x1

|-----------------------------------------------------------------|
|-----------------------------------------------------------------|
|-----------------------------------------------------------------|
|-----------------------------------------------------------------|
|-2-2-2-3-3-3-2-2-2-2-3-3-6---2-2-3-3-3-6-6-6-5-5-5-2-2-2-3-3-3-3-|
|-0-0-0-1-1-1-0-0-0-0-1-1-4---0-0-1-1-1-4-4-4-3-3-3-0-0-0-1-1-1-1-|




 RIFF 3 VERSE x8

|BOTH CLEAN WITH CHORUS AND TREMOLO EFFECTS
|-----------------------------------|
|-----------------------------------|
|-----------------------------------|
|-----3-------2---------------------|
|---2-----------------2-------------|
|-0---------0-------0---------3-1---|





 RIFF 2 CHORUS x2

 RIFF 3 VERSE x6


 RIFF 4 BRIDGE x2

|BOTH WITH LIGHT DISTORTION
|-----------------------------------|-----------------------------------|
|-----------------------------------|-----------------------------------|
|-----------------------------------|-----------------------------------|
|-----6-------5---------------------|-----5-------4---------------------|
|---5-----------------5-------------|---4-----------------4-------------|
|-3---------3-------3---------6-4---|-2---------2-------2---------5-3---|




 RIFF 5 BREAK x4

|KING
|-----------------------------------|
|-----------------------------------|
|-----------------------------------|
|-------8-9-8-----------------------|
|-7-8-----------7-----------8---7---|
|------------------10---9-----------|
|
|
|HANNEMAN
|-----------------------------------|
|-----------------------------------|
|-------7-8-7-----------------------|
|-6-7-----------6-----------7---6---|
|-------------------9---8-----------|
|-----------------------------------|




 RIFF 2 CHORUS x2


 SOLO HANNEMAN
  N.H. BAR      BAR                 N.H. BAR   N.H. BAR        WAH & BAR
|---------------------------------------------------------------------------
|-4\\////\\\\---------------------------------------------------------------
|----------------------------------------------4//\\\////\\\\---------------
|--------------------------------------------------------------0//\\\\\\\\--
|-----------------------------------4////////-------------------------------
|--------------7//\\\\////\\\\\\\\------------------------------------------

  WAH  WAH    WAH    WAH  WAH  WAH__   WAH    WAH    WAH  WAH  WAH
|------19b^^--18b^^--15b^--------------19b^^--18b^^--15b^---------|
|-17----------------------17---16-17----------------------17---16-|
|-----------------------------------------------------------------|
|-----------------------------------------------------------------|
|-----------------------------------------------------------------|
|-----------------------------------------------------------------|

  N.H. BAR
|-------------------------------------------------------|
|-16//////GRADUAL PULL////\\\\GRADUAL RELASE\\\\\\\\----|
|-------------------------------------------------------|
|-------------------------------------------------------|
|-------------------------------------------------------|
|-------------------------------------------------------|




 RIFF 3 x6 UNDER SOLO

 RIFF 1 BREAK x3


 RIFF 1A BREAK x1

|KING CLEAN WITH CHORUS AND TREMOLO EFFECTS
|-----------------------------------|
|-----------------------------------|
|-----------------------------------|
|-------3-4-3-----------------------|
|---3-----------2-----------3---2---|
|-0-----------------5---4-----------|
|                            x   x
|
|HANNEMAN CLEAN WITH CHORUS AND TREMOLO EFFECTS
|-----------------------------------|
|-----------------------------------|
|-----------------------------------|
|-------8-9-8-----------------------|
|-7-8-----------7-----------8---7---|
|------------------10---9-----------|
                             x   x


 RIFF 2 CHORUS x3


 RIFF 2 END CHORUS x1

|-----------------------------------------------------------------|
|-----------------------------------------------------------------|
|-----------------------------------------------------------------|
|-----------------------------------------------------------------|
|-2-2-2-3-3-3-2-2-2-2-3-3-6---2-2-3-3-3-6-6-6-5-5-5-2-2-2-3-3-3-3-|
|-0-0-0-1-1-1-0-0-0-0-1-1-4---0-0-1-1-1-4-4-4-3-3-3-0-0-0-1-1-1-1-|
                                                          . . . .x


11.)War Zone

Intro:

E[----------------------------------------------------------------------]
B[----------------------------------------------------------------------]
G[----------------------------------------------------------------------]x2
D[----------------------------------------------------------------------]
A[--987-987-987--987-987-987--987-987-987--987-987--12-10---------------]
E[--765-765-765--765-765-765--765-765-765--765-765--10-8----------------]

      Repeat This Part Once
E[----------------------------------------------------------------------]
B[----------------------------------------------------------------------]
G[----------------------------------------------------------------------]x3
D[----------------------------------------------------------------------]
A[----------------------------------------------------------------------]
E[-0-7-6-0-6-5-0-5-4-0-4-3-0-3-2----------------------------------------]

   After You Play The Top Part Play This Part Once
E[----------------------------------------------------------------------]
B[----------------------------------------------------------------------]
G[----------------------------------------------------------------------]x2
D[----------------------------------------------------------------------]
A[-------------------3--------------------------------------------------]
E[-0-7-6-0-6-5-0-5-4-1--------------------------------------------------]

E[----------------------------------------------------------------------]
B[----------------------------------------------------------------------]
G[----------------------------------------------------------------------]
D[----------------------------------------------------------------------]
A[-987-987-987-987-987-987-987-987-987-987-987-987---12-10--------------]
E[-765-765-765-765-765-765-765-765-765-765-765-765---10-8---------------]

Verse:

E[----------------------------------------------------------------------]
B[----------------------------------------------------------------------]
G[----------------------------------------------------------------------]x4
D[----------------------------------------------------------------------]
A[-2-2-2-2-2-2-2-3-2-2--------------------------------------------------]
E[-0-0-0-0-0-0-0-1-0-0--------------------------------------------------]

Before Chorus:

       This Part Is Also The Ending
E[----------------------------------------------------------------------]
B[----------------------------------------------------------------------]
G[----------------------------------------------------------------------]x2
D[----------------------------------------------------------------------]
A[-22222322---22222322---2222232---22222322-----------------------------]
E[-00000100---00000100---0000010---00000100-----------------------------]

Chorus:

   War Zone!!!! War Zone!!!!
E[----------------------------------------------------------------------]
B[----------------------------------------------------------------------]
G[----------------------------------------------------------------------]x2
D[----------------------------------------------------------------------]
A[--987-987-987--987-987-987--987-987-987--12-10------------------------]
E[--765-765-765--765-765-765--765-765-765--10-8-------------------------]

   Madness Is Coming Your Way!!!!!!!
E[----------------------------------------------------------------------]
B[----------------------------------------------------------------------]
G[----------------------------------------------------------------------]
D[----------------------------------------------------------------------]
A[--987-987-987-987-987-987-987--10--11---------------------------------]
E[--765-765-765-765-765-765-765--8---9----------------------------------]


12.) Here Comes The Pain


   |--------------------------------------------|
   |--------------------------------------------|after the drum pattern
   |--------------------------------------------|3 times go to next
   |--------------------------------------------|part
   |---5-4-5--2--------5-4-5--2-------5-4-5--2--|
   |---3-2-3--0--------3-2-3--0-------3-2-3--0--|


note:this is a weird part to memorize for some people
   |----------|after the pattern of the drums:
   |----------| first time:3 times
   |----------| second time:3 times
   |----------| fourth time:1 time
   |--5/4\5-2-| fifth time:1 time
   |--3/2\3-0-|


   |---------|
   |---------|
   |---------|
   |---------|
   |-5/4\5---|
   |-3/2\3---|


   |------------------|
   |------------------|
   |------------------|8x
   |------------------|
   |-----5-----4----3-|
   |-000-3-000-2-00-1-|
PM   ...   ...   ..


   |------------|
   |------------|
   |------------|4x
   |------------|
   |-2---5/4\5--|
   |-0---3/3\3--|


   |------------------------------|
   |------------------------------|
   |------------------------------|
   |------------------------------|
   |-------------------------5--2-|
   |-000-000-000-000-000-000-5--2-|


   |------------------------------|
   |------------------------------|
   |------------------------------|4x
   |------------------------------|
   |-------------------------2--5-|
   |-000-000-000-000-000-000-2--5-|


   |------------|
   |------------|
   |------------|3x
   |------------|
   |--3--3--2/4-|
   |--3--3--2/4-|

   |------------|
   |------------|
   |------------|
   |------------|
   |--3--3--4-2-|
   |--3--3--4-2-|


   |--------------------------------------------|
   |--------------------------------------------|
   |--------------------------------------------|
   |--------------------------------------------|
   |-5-4-2--4-5-2--4/54/5-2--5\4/54-2----5----4-|
   |-3-2-0--2-3-0--2/32/5-0--3\2/52-0-00-3-00-2-|



   |------------------------------|
   |------------------------------|
   |------------------------------|
   |------------------------------|
   |-------------------------5--2-|
   |-000-000-000-000-000-000-5--2-|


   |------------------------------|
   |------------------------------|
   |------------------------------|4x
   |------------------------------|
   |-------------------------2--5-|
   |-000-000-000-000-000-000-2--5-|

   |------------|
   |------------|
   |------------|3x
   |------------|
   |--3--3--2/4-|
   |--3--3--2/4-|

   |------------|
   |------------|
   |------------|
   |------------|
   |--3--3--4-2-|
   |--3--3--4-2-|

   |--------------------------------------------|
   |--------------------------------------------|
   |--------------------------------------------|2x
   |--------------------------------------------|
   |-5-4-2--4-5-2--4/54/5-2--5\4/54-2----5----4-|
   |-3-2-0--2-3-0--2/32/5-0--3\2/52-0-00-3-00-2-|

   |-----------|
   |-----------|
   |-----------|
   |-----------|4x
   |-5/4\5-2---|
   |-3/2\3-0---|

   |------------------|
   |------------------|
   |------------------|8x this part is under Kerry King's solo
   |------------------|
   |-----5-----4----3-|
   |-000-3-000-2-00-1-|
PM   ...   ...   ..

    guitar 1
   |----------------------------------|
   |----------------------------------|
   |----------------------------------|
   |----------------------3-----------|
   |----4--5--3-----4--5-----5--4--3~-|
   |-0-----------0--------------------|
   |                                  |
   |guitar 2                          |
   |----------------------------------|
   |----------------------------------|
   |----------------------------------|
   |----------------------------------|
   |-1--------------------------------|
   |-1--------------------------------|


    guitar 1
   |----------------------------------|
   |----------------------------------|
   |----------------------------------|
   |----------------------3-----------|
   |----4--5--3-----4--5-----5--4--3~-|
   |-0-----------0--------------------|
   |                                  |
   |guitar 2                          |2x
   |----------------------------------|
   |----------------------------------|
   |----------------------------------|
   |----------------------------------|
   |-1-----------1--------------------|
   |-1-----------1--------------------|


    guitar 1
   |----------------------------------|
   |----------------------------------|
   |----------------------------------|
   |----------------------3-----------|
   |----4--5--3-----4--5-----5--4--3~-|
   |-0-----------0--------------------|
   |                                  |
   |guitar 2                          |4x
   |----------------------------------|
   |----------------------------------|
   |----------------------------------|
   |----------------------------------|
   |-1-----------1-1-1----------------|
   |-1-----------1-1-1----------------|


   |-----|do this every 4 beats
   |-----|
   |-----|
   |-----|
   |--1--|
   |--1--|


   |------------------|under Jeff Hanneman's solo
   |------------------|
   |------------------|8x
   |------------------|
   |-----5-----4----3-|
   |-000-3-000-2-00-1-|
PM   ...   ...   ..


   |--------------------------------------------|
   |--------------------------------------------|after the drum pattern
   |--------------------------------------------|3 times go to next
   |--------------------------------------------|part
   |---5-4-5--2--------5-4-5--2-------5-4-5--2--|
   |---3-2-3--0--------3-2-3--0-------3-2-3--0--|


note:this is a weird part to memorize for some people
   |----------|after the pattern of the drums:
   |----------| first time:3 times
   |----------| second time:3 times
   |----------| fourth time:1 time
   |--5/4\5-2-| fifth time:1 time
   |--3/2\3-0-|


   |---------|
   |---------|
   |---------|
   |---------|
   |-5-4-5---|
   |-3-2-3---|


13.)Payback

INTRO:

B:---------------------------------------|
F#:--------------------------------------|
D:---------------------------------------|
A:---------------------------------------|
E:-2--------3--------4--------4-5--2-3-3-|
B:-0-000000-1-000000-2-000000-2-3--0-1-1-|


   repeat            ending
:-----------------|---------------|-----------------|
:-----------------|---------------|-----------------|
:-----------------|---------------|-----------------|
:-----------------|---------------|-----------------|
:---4-5--2-3-3--5-|-2-3--7~~~-(7)-|-----------------|
:---2-3--0-1-1--3-|-0-1--5~~~-(5)-|-320-320-320-320-|

  verse
:---------------------------------------------------------------------------|
:---------------------------------------------------------------------------|
:---------------------------------------------------------------------------|
:---------------------------------------------------------------------------|
:2--------666666---------666666-555555---------3333333--------666-----------|
:0-000000-444444-0000000-444444-333333-0000000-1111111-000000-444444-33333--|

    repeat
:------------------|
:------------------|
:------------------|
:------------------|
:------------------|
:--00000-3-2-0-2-0-|

:-------------------------|
:-------------------------|
:-------------------------|
:-------------------------|
:-------------1111-000000-|
:-000000-3333-------------|

The End
Tabbed by Metallica_13
Please Rate
Related for God Hates Us All tab