Guitaretab - guitar tabs
Song name
# A B C D E F G H I J K L M N O P Q R S T U V W X Y Z

Slayer - Diabolus In Musica tab

----------------------------------------------------------------------------
	       Diabolus In Musica Album - Slayer
----------------------------------------------------------------------------
Tabbed by: Brack

1. Bitter Peace


Tuning Db


 RIFF 1 INTRO x4

|KING
|-------------------------------------|
|-------------------------------------|
|-------------------------------------|
|-------------------------------------|
|-2---4---3---2---4---3---4---7-7-6---|
|-0---2---1---0---2---1---2---5-5-4---|
|                                  x
|
|HANNEMAN
|-------------------------------------|
|-------------------------------------|
|-------------------------------------|
|-------------------------------------|
|-------------------------4---7-7-6---|
|-------------------------2---5-5-4---|
                                   x



 RIFF 1A INTRO x4

|-------------------------------------|
|-------------------------------------|
|-------------------------------------|
|-------------------------------------|
|-2---4---3---2---4---3---4---7-7-6---|
|-0---2---1---0---2---1---2---5-5-4---|
                                   x



 RIFF 2 INTRO x1

|---------------------------------|---------------------------------|
|---------------------------------|---------------------------------|
|---------------------------------|---------------------------------|
|---------------------------------|---------------------------------|
|-5---8---7---5---8---7---6---3---|-5---8---7---5---8---7---6---3---|
|-3---6---5---3---6---5---4---1---|-3---6---5---3---6---5---4---1---|


|---------------------------------|---------------------------------|
|---------------------------------|---------------------------------|
|---------------------------------|---------------------------------|
|---------------------------------|---------------------------------|
|-5---8---7---5---8---7---6---3---|-5---8---7---5---------5-4-------|
|-3---6---5---3---6---5---4---1---|-3---6---5---3---3-5-6-----5-4-1-|




 RIFF 1A INTRO x3


 RIFF 2A INTRO x1

|---------------------------------|---------------------------------|
|---------------------------------|---------------------------------|
|---------------------------------|---------------------------------|
|---------------------------------|---------------------------------|
|-5---8---7---5---8---7---6---3---|-5---8---7---5---8---7---6---3---|
|-3---6---5---3---6---5---4---1---|-3---6---5---3---6---5---4---1---|


|---------------------------------|---------------------------------|
|---------------------------------|---------------------------------|
|---------------------------------|---------------------------------|
|---------------------------------|---------------------5-----------|
|-5---8---7---5---8---7---6---3---|-5---8---7---5-----4---4-3-------|
|-3---6---5---3---6---5---4---1---|-3---6---5---3---3---------5-4-1-|




 RIFF 1A INTRO x4


 FILL 1

|---------------------------------|---------------------------------|
|---------------------------------|---------------------------------|
|---------------------------------|---------------------------------|
|---------------------------------|---------------------------------|
|-2-------------------------------|---------------------------------|
|-0-------------------------------|---------------------------------|




 BASS FILL


 RIFF 3 BREAK x3

|KING
|-------------------------|
|-------------------------|
|-------------------------|
|--------7-5--------------|
|-2------7-5---2-3--------|
|-000000-------0-1--------|
|  .....
|
|HANNEMAN
|-------------------------|
|-------------------------|
|-------------------------|
|-------------------------|
|-2------------2-33333333-|
|-0------------0-11111111-|
   x



 RIFF 4 BRIDGE x1

|KING
|--------------------------------------------------------------------|
|--------------------------------------------------------------------|
|--------------------------------------------------------------------|
|--------------------------------------------------------------------|
|-2--------8-7b^^----------10-8b^^-----------8-7b^^--5-7b^^--2-3-----|
|-0-000000---------0-000000---------0-000000-----------------0-1-----|
|   ......         . ......         . ......
|
|HANNEMAN
|--------------------------------------------------------------------|
|--------------------------------------------------------------------|
|--------------------------------------------------------------------|
|--------------------------------------------------------------------|
|-2----------------------------------------------------------2-3-----|
|-0----------------------------------------------------------0-1-----|
   x


|KING
|--------------------------------------------------------------------|
|--------------------------------------------------------------------|
|--------------------------------------------------------------------|
|--------------------------------------------------------------------|
|-2--------8-7-------------10-8--------------8-7-----5-7-----2-3-----|
|-0-000000-8-7-----0-00000010-8-----0-000000-8-7-----5-7-----0-1-----|
|   ......         . ......         . ......
|
|HANNEMAN
|--------------------------------------------------------------------|
|--------------------------------------------------------------------|
|--------------------------------------------------------------------|
|--------------------------------------------------------------------|
|-2--------8-7-------------10-8--------------8-7-----5-7-----2-3-----|
|-0--------8-7-------------10-8--------------8-7-----5-7-----0-1-----|
   x             x                x



 RIFF 5 VERSE x1

|------------------------------------------------------|
|------------------------------------------------------|
|------------------------------------------------------|
|------------------------------------------------------|
|----------6----------8----------6-----5-------3-------|
|-00000000---00000000---00000000---000-3333333-1111111-|
  ........   ........   ........   ... ....... .......


|------------------------------------------------------|
|------------------------------------------------------|
|------------------------------------------------------|
|------------------------------------------------------|
|----------6----------8----------6-----5-7-----2-3-----|
|-00000000---00000000---00000000---000-5-7-----0-1-----|
  ........   ........   ........   ...


|------------------------------------------------------|
|------------------------------------------------------|
|------------------------------------------------------|
|------------------------------------------------------|
|----------6----------8----------6-----5-------3-------|
|-00000000---00000000---00000000---000-3333333-1111111-|
  ........   ........   ........   ... ....... .......


|------------------------------------------------------|
|------------------------------------------------------|
|------------------------------------------------------|
|------------------------------------------------------|
|----------6----------8----------6-----5-------2-3-----|
|-00000000---00000000---00000000---000-3333333-0-1-----|
  ........   ........   ........   ... .......



 RIFF 6 CHORUS x1

|---------------------------------|---------------------------------|
|---------------------------------|---------------------------------|
|---------------------------------|---------------------------------|
|---------------------------------|---------------------------------|
|-------------------------4-3-2---|-------------------------5-4-3---|
|-3-2-0-2-3-2-0-2-3-2-0-2-------2-|-3-2-0-2-3-2-0-2-3-2-0-2-------2-|
  . . . . . . . . . . . .           . . . . . . . . . . . .


|---------------------------------|
|---------------------------------|
|---------------------------------|
|---------------------------------|
|-------------------------6-5-4---|
|-3-2-0-2-3-2-0-2-3-2-0-2-------2-|
  . . . . . . . . . . . .



 RIFF 7 BREAK x3

|----------------------------|
|----------------------------|
|----------------------------|
|--------7-5---9101010101010-|
|-2------7-5---7-8-8-8-8-8-8-|
|-000000---------------------|
   .....



 FILL 2

|----------------------------|
|----------------------------|
|----------------------------|
|----------------------------|
|-6\5------6\5------5\4------|
|-4\333333-4\333333-3\222222-|
     .....    .....    .....



 RIFF 5A VERSE x1

|------------------------------------------------------|
|------------------------------------------------------|
|------------------------------------------------------|
|------------------------------------------------------|
|----------6----------8----------6-----5-------3-------|
|-00000000---00000000---00000000---000-3333333-1111111-|
  ........   ........   ........   ... ....... .......


|------------------------------------------------------|
|------------------------------------------------------|
|------------------------------------------------------|
|------------------------------------------------------|
|----------6----------8----------6-----5-7-----2-3-----|
|-00000000---00000000---00000000---000-5-7-----0-1-----|
  ........   ........   ........   ...



 RIFF 8 INTERLUDE x1

|----------------------------------|----------------------------------|
|----------------------------------|----------------------------------|
|----------------------------------|----------------------------------|
|----------------------------------|----------------------------------|
|-------------------------2--3-----|-------------------------5--3-----|
|-0-0-0-0-0-0-0-0-0-0-0-0-0--1-----|-0-0-0-0-0-0-0-0-0-0-0-0-3--1-----|
  . . . . . . . . . . . .            . . . . . . . . . . . .


|----------------------------------|----------------------------------|
|----------------------------------|----------------------------------|
|----------------------------------|----------------------------------|
|----------------------------------|----------------------------------|
|-------------------------2--3-----|----------5--3-----------2--3-----|
|-0-0-0-0-0-0-0-0-0-0-0-0-0--1-----|-0-0-0-0--3--1--0-0-0-0--0--1-----|
  . . . . . . . . . . . .            . . . .        . . . .



 RIFF 6A CHORUS x1

|---------------------------------|---------------------------------|
|---------------------------------|---------------------------------|
|---------------------------------|---------------------------------|
|---------------------------------|---------------------------------|
|-------------------------4-3-2---|-------------------------5-4-3---|
|-3-2-0-2-3-2-0-2-3-2-0-2-------2-|-3-2-0-2-3-2-0-2-3-2-0-2-------2-|
  . . . . . . . . . . . .           . . . . . . . . . . . .


|KING
|---------------------------------|---------------------------------|
|---------------------------------|---------------------------------|
|---------------------------------|---------------------------------|
|---------------------------------|---------4-------3---------------|
|-4-------5-------2-------4-------|-5-------2-------1-------3-------|
|-2-------3-------0-------2-------|-3-----------------------1-------|
|
|
|HANNEMAN
|---------------------------------|---------------------------------|
|---------------------------------|---------------------------------|
|---------------------------------|---------------------------------|
|---------------------------------|---------------------------------|
|---------------------------------|---------2222222-1111111---------|
|-2222222-3333333-0000000-2222222-|-3333333-----------------1111111-|
  ....... ....... ....... .......   ....... ....... ....... .......



 RIFF 4A BREAK x1

|KING
|--------------------------------------------------------------------|
|--------------------------------------------------------------------|
|--------------------------------------------------------------------|
|--------------------------------------------------------------------|
|-2--------8-7b^^----------10-8b^^-----------8-7b^^--5-7b^^--2-3-----|
|-0-000000---------0-000000---------0-000000-----------------0-1-----|
|   ......         . ......         . ......
|
|HANNEMAN
|--------------------------------------------------------------------|
|--------------------------------------------------------------------|
|--------------------------------------------------------------------|
|--------------------------------------------------------------------|
|-2--------8-7-------------10-8--------------8-7-----5-7-----2-3-----|
|-0--------8-7-------------10-8--------------8-7-----5-7-----0-1-----|
   x             x                x



 SOLO 1 HANNEMAN
  WAH__________ WAH_____________________________________________________
|---------------------------------12-14-15-14-12-11-12-14-12-11----------|
|-11b^^11111111-11-13-14-11-13-14-------------------------------14-13-11-|
|------------------------------------------------------------------------|
|------------------------------------------------------------------------|
|------------------------------------------------------------------------|
|------------------------------------------------------------------------|

  WAH_________
|---------------------161616-17----17----17------17-16-17----17----------|
|-------------------------------19----17----16^-----------19----17b^^\\--|
|-14-12-11-14b^^^^-------------------------------------------------------|
|------------------------------------------------------------------------|
|------------------------------------------------------------------------|
|------------------------------------------------------------------------|

  WAH__________________________________________                      A.H.
|-12-14-15-14-12--------------------------------------------------------------|
|----------------14-13-11-14-13-11------------------------14-13^--------------|
|----------------------------------14-12-11-14b^^------12---------12-14b^^^^--|
|-------------------------------------------------/14b------------------------|
|-----------------------------------------------------------------------------|
|-----------------------------------------------------------------------------|




 RIFF 9 x2 UNDER SOLO 1

|---------------------|---------------------|
|---------------------|---------------------|
|---------------------|---------------------|
|---------------------|---------------------|
|------3--------------|------3--------------|
|-2222---222222333333-|-2222---333333666666-|
  ....   ............   ....   ............


 FILL 3 UNDER SOLO 1

|----------------------|
|----------------------|
|----------------------|
|----------------------|
|------2-4-----2-4-----|
|-2222-0-2-----0-2-----|
  ....



 SOLO 2 KING

|-21-24-22-21-------21-24-22-21-------21-24-22-21----------20b^^----|
|-------------24-23-------------24-23-------------24-23-24-23b^^----|
|-------------------------------------------------------------------|
|-------------------------------------------------------------------|
|-------------------------------------------------------------------|
|-------------------------------------------------------------------|


|-21-24-22-21-------21-24-22-21----------20b^^--18b^^----15b^^--15b^^--|
|-------------24-23-------------24-23-24-23b^^--21b^^----18b^^--18b^^--|
|----------------------------------------------------------------------|
|----------------------------------------------------------------------|
|----------------------------------------------------------------------|
|----------------------------------------------------------------------|


|-15-18-16-15-------15-18-16-15-------15b^^--15b^^--15-18-16-15-------|
|-------------18-17-------------18-17-18b^^--18b^^--------------18-17-|
|---------------------------------------------------------------------|
|---------------------------------------------------------------------|
|---------------------------------------------------------------------|
|---------------------------------------------------------------------|

  WAH & BAR
|-------------------------------------------------------------------|
|-------------------------------------------------------------------|
|----------------------------------------------------------15-16-18-|
|----------------------------------------14-15-17-14-15-17----------|
|-12\\\\\\-------------13-14-16-13-14-16----------------------------|
|-------------12-13-15----------------------------------------------|
              .. .. .. .. .. .. .. .. ..
                                         WAH
|----------------------------15-16-18-15-18fb^r\\\\\\\\----|
|----------15-17-18-15-17-18-------------------------------|
|-15-16-18-------------------------------------------------|
|----------------------------------------------------------|
|----------------------------------------------------------|
|----------------------------------------------------------|




 RIFF 9A x2 UNDER SOLO 2

|---------------------|---------------------|
|---------------------|---------------------|
|---------------------|---------------------|
|---------------------|---------------------|
|------4--------------|------4--------------|
|-3333---333333444444-|-3333---444444777777-|
  ....   ............   ....   ............



 FILL 4 UNDER SOLO 2

|-------------------------------|
|-------------------------------|
|-------------------------------|
|-------------------------------|
|------2-4-----2-5-----2-4------|
|-3333-0-2-----0-3-----0-2------|
  ....




 RIFF 4B BREAK x1

|KING
|--------------------------------------------------------------------|
|--------------------------------------------------------------------|
|--------------------------------------------------------------------|
|--------------------------------------------------------------------|
|-2--------8-7b^^----------10-8b^^-----------8-7b^^^^^^^^^^------3---|
|-0-000000---------0-000000---------0-000000---------------------1---|
|   ......         . ......         . ......
|
|HANNEMAN
|--------------------------------------------------------------------|
|--------------------------------------------------------------------|
|--------------------------------------------------------------------|
|--------------------------------------------------------------------|
|-2--------------------------------------------------------------3---|
|-0--------------------------------------------------------------1---|
   x



 RIFF 10 INTERLUDE x1

|x3
|---------------------------------|---------------------------------|
|---------------------------------|---------------------------------|
|---------------------------------|---------------------------------|
|-------------------------6-5-4---|---------------------------------|
|-------------------------------5-|-------------------------6-------|
|-0-0-0-0-0-0-0-0-0-0-0-0---------|-0-0-0-0-0-0-0-0-0-0-0-0-4-------|
  . . . . . . . . . . . .           . . . . . . . . . . . .


|x1
|---------------------------------|---------------------------------|
|---------------------------------|---------------------------------|
|---------------------------------|---------------------------------|
|-------------------------6-5-4---|---------------------------------|
|-------------------------------5-|-------------------------2-3-----|
|-0-0-0-0-0-0-0-0-0-0-0-0---------|-0-0-0-0-0-0-0-0-0-0-0-0-0-1-----|
  . . . . . . . . . . . .           . . . . . . . . . . . .



 RIFF 6B BREAK x1

|-------------------------------------------------|
|-------------------------------------------------|
|---------------------------------4-------3-------|
|-------------------------5-------4-------3-------|
|-------------------------5-------2-------1-------|
|-3-2-0-2-3-2-0-2-3-2-0-2-3-----------------------|
  . . . . . . . . . . . .



 RIFF 10 INTERLUDE x1

 RIFF 6A CHORUS x1

 RIFF 3 BREAK x3


 RIFF 4B END

|KING
|--------------------------------------------------------------------|
|--------------------------------------------------------------------|
|--------------------------------------------------------------------|
|--------------------------------------------------------------------|
|-2--------8-7-------------10-8--------------8-7-----2-3-------------|
|-0--------8-7-------------10-8--------------8-7-----0-1-------------|
|  x             x                x                     x
|
|HANNEMAN
|--------------------------------------------------------------------|
|--------------------------------------------------------------------|
|--------------------------------------------------------------------|
|--------------------------------------------------------------------|
|-2--------3-2--------------5-3--------------3-2-----2-3-------------|
|-0--------1-0--------------3-1--------------1-0-----0-1-------------|
   x             x                x                     x


2. Death's Head

Tunning Db Gb B E Ab Db  (Key of C#)


Intro Riff

|--------------------------------------------|
|--------------------------------------------|
|--------------------------------------------|
|--------------------------------------------|
|--------------------------------------------|
|000--000--000--000--000--000----310-310-310-|
 ...  ...  ...  ...  ...  ...    ... ... ...


Riff 1   8 times

|-----------------------|
|-----------------------|
|-----------------------|
|-----------------------|
|2-3--/8-7---22-3--/8-7-|
|0-1--/6-5---00-1--/6-5-|
             ,,


Riff 2                          Riff 2 A

|---------------------------|  |----------------------------------|
|---------------------------|  |----------------------------------|
|---------------------------|  |----------------------------------|
|---------------------------|  |----------------------------------|
|2------3--2~---3------5--6-|  |2------3--2~---3------5-----------|
|0--------------1------3--4-|  |0--------------1------3---310-310-|



Riff 1 8 times
Riff 2 and Riff 2 A 1 time



Riff 3  4 times

|----------------------------|
|----------------------------|Right Channel plays this with Wah, and Varies
|----------------------------|the Pinch Harmonic while Left Channel sustains
|-------------------------ph-|an Open Low E Power Chord
|9-999--8~~----10--9-999--8--|
|------------0---------------|
             .


Riff 1 8 times



Riff 4  4 times

|--------------------------------------|
|--------------------------------------|
|--------------------------------------|
|--------------------------------------|
|444--333--2--5----4-444--3-33--2-2--5-|
|222--111--0--3----2-222--1-11--0-0--3-|
                     ...


Riff 5  8 times

|--------------------------------------------|
|------------With Tremolo Effects Throughout-|
|--------------------------------------------|
|----------------------Slight PM Throughout--|
|--------------------------------------------|
|3-3333--2--0---4----------------------------|
 , ,,,,  ,  ,   ,


Riff 1 7 1/2 times, finish with Fill 1



Fill 1

|---------|
|---------|
|---------|
|---------|
|2-3--8-7-|
|0-1--6-5-|
 . .  . .


Long Slide

|---------|
|---------|
|---------|
|---------|
|---------|
|--/---\--|



Riff 6

|---------------------------------------|
|---------------------------------------|
|---------------------------------------|
|-----666--555----------------------444-|
|444--444--333--666--555--222--333--222-|
|222------------444--333--000--111------|
                          ...  ...


Riff 7                           Fill 2 A

|-----------------------------| |--------------|  This Riff progresses through
|-----------------------------| |--------------|  each Fill that follows.
|-----------------------------| |--------------|
|-----666--555--666-------444-| |--------------|
|444--444--333--444--666--222-| |---3-2--1-5-4-|
|222-----------------444------| |-2------------|
                                  . . .  . . .



Fill 2 B           Fill 2 C        Fill 2 D

Left Channel
|---------------| |-------------| |-------------|
|---------------| |-------------| |-------------|
|---------------| |-------------| |-------------|
|---------------| |--3-2--1-5-4-| |--3-2--1-5-4-|
|2-2-2--6-5-4---| |--3-2--1-5-4-| |--3-2--1-5-4-|
|2--------------| |2------------| |2------------|
   . .  . .        . . .  . .      . . .  . . .



Fill 2 B           Fill 2 C        Fill 2 D

Right Channel
|---------------| |-------------| |-------------|
|---------------| |-------------| |-------------|
|---------------| |-------------| |-------------|
|4--------------| |-------------| |4------------|
|4------0-1-0---| |--3-3--------| |4------6-7-6-|
|--2-2----------| |0-3-3--6-7-6-| |--3-3--------|
 . . .  . . .      . . .  . . .      . .    .



Riff 8

|---------------------|*    The right Channel plays this song
|---------------------|*    through a Wah (again) It varies
|---------------------|*    quite a bit...
|-----666--555--------|*
|444--444--333--7-6-7-|*
|222------------5-4-5-|*



Play Long Slide



Riff 9

|-------------------------------------------------------------------
|-------------------------------------------------------------------
|-------------------------------------------------------------------
|-------------------------------------------------------------------
|--------4--3~---------------------------------------4-3~-----------
|2---0-2--------0-2--6--5~--0-2-3-2~--3-5-6---0--0-2------0-2--3-2~-
     . .        . .  .      . . .     . .        . .      . .


Riff 9 Fill 1

First Time only
|--------------------|
|--------------------|
|--------------------|
|----------------2-1-|
|----------3-2-3-----|
|-3-2-0--2-----------|
  . . .  . . . .




Riff 9 Fill 2 Cont.

Left Channel

|------------------------------------|
|------------------------------------|
|------------------------------------|
|----------------1-0-----------------|
|---------3-2--2------1--4-3--0--3-2-|
|3-2-0--2----------------------------|
 . . .  .      .      .       .



Riff 9 Fill 2 Cont.

Right Channel

|------------------------------------|
|------------------------------------|
|------------------------------------|
|----------------5-4----4-3------3-0-|
|---------3-2--2------1-------0------|
|3-2-0--2----------------------------|
 . . .  .      .      .       .



Riff 10

|-------|
|-------|
|-------|
|-------|
|5-4--2-|
|3-2--0-|
 , ,

3. Stain of Mind
Tuning Db


 RIFF 1 INTRO x1

|KING
|-------------------------------|-------------------------------|
|-------------------------------|-------------------------------|
|-------------------------------|-------------------------------|
|---9-----9-----9---9---8---9---|---9-----9-----9---9--12--11---|
|---7-----7-----7---7---6---7---|---7-----7-----7---7--10---9---|
|-0-----0-----0---0-------------|-0-----0-----0---0-------------|
| .     .     .   .               .     .     .   .
|
|HANNEMAN
|-------------------------------|-------------------------------|
|-------------------------------|-------------------------------|
|-------------------------------|-------------------------------|
|-------------------------------|-------------------------------|
|---7-----7-----7---7---6---7^--|---7-----7-----7---7--10---9^--|
|-0-----0-----0---0-------------|-0-----0-----0---0-------------|
  .     .     .   .               .     .     .   .


|KING
|-------------------------------|-------------------------------|
|-------------------------------|-------------------------------|
|-------------------------------|-------------------------------|
|---9-----9-----9---9---8---9---|---9-----9-----9---9--11--10---|
|---7-----7-----7---7---6---7---|---7-----7-----7---7---9---8---|
|-0-----0-----0---0-------------|-0-----0-----0---0-------------|
| .     .     .   .               .     .     .   .
|
|HANNEMAN
|-------------------------------|-------------------------------|
|-------------------------------|-------------------------------|
|-------------------------------|-------------------------------|
|-------------------------------|-----------------------9---8^--|
|---7-----7-----7---7---6---7^--|---7-----7-----7---7-----------|
|-0-----0-----0---0-------------|-0-----0-----0---0-------------|
  .     .     .   .               .     .     .   .


|KING
|-------------------------------|-------------------------------|
|-------------------------------|-------------------------------|
|-------------------------------|-------------------------------|
|---9-----9-----9---9---8---9---|---9-----9-----9---9--12--11---|
|---7-----7-----7---7---6---7---|---7-----7-----7---7--10---9---|
|-0-----0-----0---0-------------|-0-----0-----0---0-------------|
| .     .     .   .               .     .     .   .
|
|HANNEMAN
|-------------------------------|-------------------------------|
|-------------------------------|-------------------------------|
|-------------------------------|-------------------------------|
|-------------------------------|----------------------10---9^--|
|---7-----7-----7---7---6---7^--|---7-----7-----7---7-----------|
|-0-----0-----0---0-------------|-0-----0-----0---0-------------|
  .     .     .   .               .     .     .   .


|KING
|-------------------------------|-------------------------------|
|-------------------------------|-------------------------------|
|-------------------------------|-------------------------------|
|---9-----9-----9---9---8---9---|---9-----9-----9---9--11--10---|
|---7-----7-----7---7---6---7---|---7-----7-----7---7---9---8---|
|-0-----0-----0---0-------------|-0-----0-----0---0-------------|
| .     .     .   .               .     .     .   .
|
|HANNEMAN
|-------------------------------|-------------------------------|
|-------------------------------|-------------------------------|
|-------------------------------|-------------------------------|
|-------------------------------|-------------------------------|
|---7-----7-----7---7---6---7^--|---7-----7-----7---7---9---8^--|
|-0-----0-----0---0-------------|-0-----0-----0---0-------------|
  .     .     .   .               .     .     .   .



 FILL 1

|KING
|---------------------------------|---------------------------------|
|---------------------------------|---------------------------------|
|---------------------------------|---------------------------------|
|---------------------------------|---------------------------------|
|-2-------5-------4-------3-------|-2-------5-------4-------3-------|
|-0-------3-------2-------1-------|-0-------3-------2-------1-------|
|
|
|HANNEMAN WITH WAH
|---------------------------------|---------------------------------|
|---------------------------------|---------------------------------|
|---------------------------------|---------------------------------|
|---------------------------------|---------------------------------|
|-777777710101010-9999999-8888888-|-777777710101010-9999999-8888888-|
|---------------------------------|---------------------------------|




 RIFF 2A INTO VERSE x1

|KING
|-------------------------------|
|-------------------------------|
|-------------------------------|
|-------------------------------|
|-2---------------------2---5---|
|-0---------------------0---3---|
|  x                         x
|
|HANNEMAN
|-------------------------------|
|-------------------------------|
|-------------------------------|
|-------------------------------|
|-2-4---2-4---2-4-2-4---2---5---|
|-0-2---0-2---0-2-0-2---0---3---|


|KING x2
|-------------------------------|
|-------------------------------|
|-------------------------------|
|-------------------------------|
|-----------------------2---5---|
|-----------------------0---3---|
|                            x
|
|HANNEMAN x2
|-------------------------------|
|-------------------------------|
|-------------------------------|
|-------------------------------|
|-2-4---2-4---2-4-2-4---2---5---|
|-0-2---0-2---0-2-0-2---0---3---|




 RIFF 2 VERSE x4

|-------------------------------|
|-------------------------------|
|-------------------------------|
|-------------------------------|
|-2-4---2-4---2-4-2-4---2---5---|
|-0-2---0-2---0-2-0-2---0---3---|
  . .   . .   . . . .



 RIFF 2B BREAK x2

|KING
|-------------------------------|
|-------------------------------|
|-------------------------------|
|-------------------------------|
|-2-4---2-4---2-4-2-4---2---5---|
|-0-2---0-2---0-2-0-2---0---3---|
|
|
|HANNEMAN
|-------------------------------|
|-------------------------------|
|-------------------------------|
|-------------------------------|
|-2-4---2-4---2-4-2-4---2---5---|
|-0-2---0-2---0-2-0-2---0---3---|
  . .   . .   . . . .



 RIFF 2 VERSE x4


 RIFF 3 BRIDGE x4

|-----------------|-----------------|
|-----------------|-----------------|
|-----------------|-----------------|
|-----------------|-----------------|
|-----------------|-----------------|
|-0---2---3---5---|-0---2---3---5---|
  .   .   .   .     .   .   .   .



 RIFF 3A CHORUS x8

|-----------------|-----------------|
|-----------------|-----------------|
|-----------------|-----------------|
|-----------------|-----------------|
|-2---4---5---7---|-2---4---5---7---|
|-0---2---3---5---|-0---2---3---5---|




 RIFF 2A BREAK x1

 RIFF 2 VERSE x4

 RIFF 2B BREAK x2

 RIFF 2 VERSE x4

 RIFF 3 BRIDGE x8

 RIFF 3A CHORUS x8


 SOLO KING
  WAH_        WAH        WAH                    WAH____  WAH______________
|-----------------------------------------------15/21\5--------4-5-4-------|
|-/20b^^^^----20b^^^^----20b^^^^^^^^^^^^^^^^-------------4-6-7-------7-6-4-|
|-/22b^^^^----22b^^^^----22b^^^^^^^^^^^^^^^^-------------------------------|
|--------------------------------------------------------------------------|
|--------------------------------------------------------------------------|
|--------------------------------------------------------------------------|

  WAH_______________________________________________________________
|-------4-5-4-----------------------------------------------------------|
|-4-6-7-------7-6-4-7-6-4-----------------------------------------------|
|-------------------------7-5-4-7-5-4-----------------------------------|
|-------------------------------------6-4-3-6-4-3-----------------------|
|-------------------------------------------------5-3-2-5-3-2-----------|
|-------------------------------------------------------------4-2-1b^^--|

  WAH_________      WAH_________                       N.H. BAR
|------------------------------------------------------------------------|
|------------------------------------------------------22////\\\\\\\\----|
|-------------------------3-5-4b^^----//16b^^^^^^^^----22////\\\\\\\\----|
|-------------------2-3-4------------------------------------------------|
|-------1-3-2b^^---------------------------------------------------------|
|-0-1-2------------------------------------------------------------------|

  N.H. BAR
|---------------------------------------------------|
|-22////////////////--------------------------------|
|---------------------------------------------------|
|---------------------------------------------------|
|----------------------------------------x\\\\\\----|
|---------------------x\\\\\\\\\\\\\\\\-------------|




 RIFF 2C x8 UNDER SOLO

|-------------------------------|
|-------------------------------|
|-------------------------------|
|-2-4---2-4---2-4-2-4---5-------|
|-0-2---0-2---0-2-0-2---3---6---|
|---------------------------4---|




 FILL 2 UNDER SOLO
  WAH_
|---------------------|
|---------------------|
|---------------------|
|---------------------|
|---------------------|
|-4//7----------------|



 RIFF 2D INTO VERSE

|KING
|-------------------------------|
|-------------------------------|
|-------------------------------|
|-------------------------------|
|-2---------------------2---5---|
|-0---------------------0---3---|
|  x                         x
|
|HANNEMAN
|-------------------------------|
|-------------------------------|
|-------------------------------|
|-------------------------------|
|-2-4---2-4---2-4-2-4---2---5---|
|-0-2---0-2---0-2-0-2---0---3---|


|KING
|---------------------|
|---------------------|
|---------------------|
|---------------------|
|-------------2---5---|
|-------------0---3---|
|                  x
|
|HANNEMAN
|---------------------|
|---------------------|
|---------------------|
|---------------------|
|-2-4---2-4---2---5---|
|-0-2---0-2---0---3---|




 RIFF 2 VERSE x8


 FILL 3

|-------|
|-------|
|-------|
|-------|
|-2-----|
|-0-----|
   x



 RIFF 3 BRIDGE ONLY BASS

 HANNEMAN FINGER SLIDE

 RIFF 3A CHORUS x8

 RIFF 1 OUTRO x1


 FILL 1A

|KING
|---------------------------------|---------------------------------|-------
|---------------------------------|---------------------------------|-------
|---------------------------------|---------------------------------|-------
|---------------------------------|---------------------------------|-------
|-2-------5-------4-------3-------|-2-------5-------4-------3-------|-2-----
|-0-------3-------2-------1-------|-0-------3-------2-------1-------|-0-----
|                                                                      x
|
|HANNEMAN WITH WAH_______________
|---------------------------------|---------------------------------|-------
|---------------------------------|---------------------------------|-------
|---------------------------------|---------------------------------|-------
|---------------------------------|---------------------------------|-------
|-777777710101010-9999999-8888888-|-2-------5-------4-------3-------|-2-----
|---------------------------------|-0-------3-------2-------1-------|-0----
                                                                       x
4. Overt Enemy

Tuning Eb


 BASS INTRO

 RIFF 1 INTRO x1

|KING
|--------------------------------|--------------------------------|
|--------------------------------|--------------6--5--------------|
|--------------------------------|----4--3b^^---------------------|
|--------------3--2--------------|--------------------3--2b^^-----|
|----2--1b^^---------3b^^--------|--------------------------------|
|-0------------------------------|-0------------------------------|
|
|
|HANNEMAN
|--------------------------------|--------------------------------|
|--------------------------------|--------------------------------|
|--------------------------------|--------------------------------|
|--------------3--2--------------|--------------3--2--------------|
|----2--1b^^---------3b^^--------|----2--1b^^---------3--2b^^-----|
|-0------------------------------|-0------------------------------|



|KING
|--------------------------------|--------------------------------|
|--------------------------------|-------------10--9--------------|
|--------------------8b^^--------|----7--6b^^---------9--8b^^-----|
|-/7--6b^^----10--9--------------|--------------------------------|
|--------------------------------|--------------------------------|
|--------------------------------|-0------------------------------|
|
|
|HANNEMAN
|--------------------------------|--------------------------------|
|--------------------------------|--------------------------------|
|--------------------------------|--------------------------------|
|--------------------------------|--------------3--2--------------|
|--------------------3b^^--------|----2--1b^^---------3--2b^^-----|
|-/2--1b^^-----5--4--------------|-0------------------------------|




 RIFF 2 MAIN x1

|-----|---------------------------------|---------------------------------|
|-----|---------------------------------|---------------------------------|
|-----|---------------------------------|---------------------------------|
|-----|-----------------------------3-2-|-----------------------------3---|
|-2---|-5-4-2-5-4-2-2-2-5-4-2-5-4-2-1-0-|-5-4-2-5-4-2-2-2-5-4-2-5-4-2-1---|
|-0---|-3-2-0-3-2-0-0-0-3-2-0-3-2-0-----|-3-2-0-3-2-0-0-0-3-2-0-3-2-0-----|
        . . . . . . . . . . . . . . . .   . . . . . . . . . . . . . .


|---------------------------------|-----------------------------|
|---------------------------------|-----------------------------|
|---------------------------------|-----------------------------|
|-----------------------------3-2-|-----------------------------|
|-5-4-2-5-4-2-2-2-5-4-2-5-4-2-1-0-|-5-4-2-5-4-2-2-2-5-4-2-5-4-2-|
|-3-2-0-3-2-0-0-0-3-2-0-3-2-0-----|-3-2-0-3-2-0-0-0-3-2-0-3-2-0-|
  . . . . . . . . . . . . . . . .   . . . . . . . . . . . . . .



 RIFF 3 VERSE x3

|-----------------------------|
|-----------------------------|
|-----------------------------|
|-------------------3-----2---|
|-2---5-----4---2---1-----0---|
|-0---3-----2---0-------------|




 FILL 1

|-----------------------------|
|-----------------------------|
|-----------------------------|
|-----------------------------|
|-5---2-2---2-2---2-2---2-2---|
|-3---0-0---0-0---0-0---0-0---|
      . .x  . .x  . .x  . .x



 RIFF 3 VERSE x3


 FILL 2

|-----------------|
|-----------------|
|-----------------|
|-----------------|
|-5---2-2---2-2---|
|-3---0-0---0-0---|
      . .x  . .x



 RIFF 3 VERSE x3


 FILL 3

|-----------------------|
|-----------------------|
|-----------------------|
|-----------------------|
|-5---2-2---2-2---2-2---|
|-3---0-0---0-0---0-0---|
      . .x  . .x  . .x



 RIFF 4 CHORUS x1
|x1                           |x2                           |x1
|-----------------------------|-----------------------------|-----|
|-----------------------------|-----------------------------|-----|
|-----------------------------|-----------------------------|-----|
|-----4-----3-------4---------|-----4-----3-------4---------|-----|
|-5---2-----1---5---2-----3---|-2---2-----1---5---2-----3---|-2---|
|-3-------------3---------1---|-0-------------3---------1---|-0---|




 SOLO 1 HANNEMAN
  WAH_______________________  WAH_______________________
|---------------------------------------------------------|
|---------------------------------------------------------|
|-111111111111-101010-111111--141414141414-131313-141414--|
|---------------------------------------------------------|
|---------------------------------------------------------|
|---------------------------------------------------------|

  WAH_______________________  WAH_______________________
|---------------------------------------------------------|
|---------------------------------------------------------|
|-111111111111-101010-111111--141414141414-131313-141414--|
|---------------------------------------------------------|
|---------------------------------------------------------|
|---------------------------------------------------------|

  WAH_____________________________________________________________________
|-----------------------------------------------------------------------------|
|-------------------13-15-16-13-15-16-15-13-----------------------------------|
|-13-14-16-13-14-16-------------------------16-14-13-16-14-13-----------------|
|-------------------------------------------------------------15-13-15/16b^^--|
|-----------------------------------------------------------------------------|
|-----------------------------------------------------------------------------|

  WAH_______________________________________________________________
|--------------------------------------------------------------------|
|-18-20-18-21-181818-20-18-21-181818-20-18-21-181818-20-18-21-181818-|
|--------------------------------------------------------------------|
|--------------------------------------------------------------------|
|--------------------------------------------------------------------|
|--------------------------------------------------------------------|

  WAH________________    WAH
|-----------------22b^^-----------------|
|-20-18-21-181818-----------------------|
|------------------------20b^^^^\\\\----|
|---------------------------------------|
|---------------------------------------|
|---------------------------------------|




 RIFF 5 x3 UNDER SOLO

|-----------------------------|
|-----------------------------|
|-----------------------------|
|-----------------------------|
|-4-----3---4---7-----6---9---|
|-2-----1---2---5-----4---7---|



 FILL 1A UNDER SOLO

|--------------------------|
|--------------------------|
|--------------------------|
|--------------------------|
|--2-2---2-2---2-2---2-2---|
|--0-0---0-0---0-0---0-0---|
   . .x  . .x  . .x  . .x




 RIFF 3 VERSE x3

 FILL 2

 RIFF 3 VERSE x3

 FILL 3

 RIFF 4 CHORUS x1


 SOLO 2 HANNEMAN
  WAH________________________________________________________________
|---------------------------------------------------------------------|
|---------------------------------------------------7-9-10-9-7--------|
|-------------------------------------7-8-10-7-8-10------------10-8-7-|
|-------------------------6-7-9-6-7-9---------------------------------|
|-------------5-6-8-5-6-8---------------------------------------------|
|-4-5-7-4-5-7---------------------------------------------------------|
  . . . . . . . . . . . .
  WAH_________________________________________________  WAH___    WAH___
|---------------------------------------------------------------------------|
|-10-9-7--------10-9-7----10-9-7-------------7-9-10b^^--15--------15--------|
|--------10-8-7--------10--------10-8-7-8-10---------------16b^^-----16b^^--|
|---------------------------------------------------------------------------|
|---------------------------------------------------------------------------|
|---------------------------------------------------------------------------|

  WAH_______________________   WAH________________________________
|------------------------------16-17-19-16-17-19----------16-17-19-|
|----------16-18-19-18-19-18^--------------------16-18-19----------|
|-16-17-19---------------------------------------------------------|
|------------------------------------------------------------------|
|------------------------------------------------------------------|
|------------------------------------------------------------------|

  WAH________________________BAR
|----------16-17-19-----------------------------------|
|-16-18-19----------16-18/19b////////////////\\/\\----|
|-----------------------------------------------------|
|-----------------------------------------------------|
|-----------------------------------------------------|
|-----------------------------------------------------|



 RIFF 5 x3 UNDER SOLO 2

 FILL 1B UNDER SOLO 2

|------------------------------|
|------------------------------|
|------------------------------|
|------------------------------|
|--2-2---2-2---2-2---2-2---3---|
|--0-0---0-0---0-0---0-0---1---|
   . .x  . .x  . .x  . .x



 RIFF 6 INTERLUDE x1

|KING
|-------------------------------------------------|
|-------------------------------------------------|
|-------------------------------------------------|
|-------------------9-----8-----------7-----------|
|-7-----8----10-----------------9-----------8-----|
|---0-0---0-0---0-0---0-0---0-0---0-0---0-0---0-0-|
|   . .   . .   . .   . .   . .   . .   . .   . .
|
|HANNEMAN
|-------------------------------------------------|
|-------------------------------------------------|
|-------------------------------------------------|
|-------------------------------------------------|
|-2-----------------------------------------------|
|-0-----------------------------------------------|
   x

|KING                                        TRILL
|-------------------------------------------------|
|-------------------------------------------------|
|-------------------------------------------------|
|-------------------9-----8-----------7-----------|
|-7-----8----10-----------------9-----------8h9p8-|
|---0-0---0-0---0-0---0-0---0-0---0-0---0-0-------|
|   . .   . .   . .   . .   . .   . .   . .
|
|HANNEMAN
|-------------------------------------------------|
|-------------------------------------------------|
|-------------------------------------------------|
|-------------------------------------------------|
|-------------------------------------------------|
|-------------------------------------------------|


|KING
|-------------------------------------------------|
|-------------------------------------------------|
|-------------------------------------------------|
|-------------------9-----8-----------7-----------|
|-7-----8----10-----------------9-----------8-----|
|---0-0---0-0---0-0---0-0---0-0---0-0---0-0---0-0-|
|   . .   . .   . .   . .   . .   . .   . .   . .
|
|HANNEMAN
|-------------------------------------------------|
|-------------------------------------------------|
|-------------------------------------------------|
|-------------------------------------------------|
|-2-----2-----2-----2-----2-----2-----2-----2-----|
|-0-----0-----0-----0-----0-----0-----0-----0-----|
  .x    .x    .x    .x    .x    .x    .x    .x

|KING                                        TRILL
|-------------------------------------------------|
|-------------------------------------------------|
|-------------------------------------------------|
|-------------------9-----8-----------7-----------|
|-7-----8----10-----------------9-----------8h9p8-|
|---0-0---0-0---0-0---0-0---0-0---0-0---0-0-------|
|    . .   . .   . .   . .   . .   . .   . .
|
|HANNEMAN
|-------------------------------------------------|
|-------------------------------------------------|
|-------------------------------------------------|
|-------------------------------------------------|
|-2-----2-----2-----2-----2-----2-----2-----------|
|-0-----0-----0-----0-----0-----0-----0----13\\\\-|
  .x    .x    .x    .x    .x    .x    .x



 RIFF 2A MAIN x1

|---------------------------------|---------------------------------|
|---------------------------------|---------------------------------|
|---------------------------------|---------------------------------|
|---------------------------------|-----------------------------3-2-|
|-5-4-2-5-4-2-2-2-5-4-2-5-4-2-3-2-|-5-4-2-5-4-2-2-2-5-4-2-5-4-2-1-0-|
|-3-2-0-3-2-0-0-0-3-2-0-3-2-0-1-0-|-3-2-0-3-2-0-0-0-3-2-0-3-2-0-----|
  . . . . . . . . . . . . . . . .   . . . . . . . . . . . . . . . .


|---------------------------------|---------------------------------|
|---------------------------------|---------------------------------|
|---------------------------------|---------------------------------|
|---------------------------------|-----------------------------3---|
|-5-4-2-5-4-3-2-2-5-4-2-5-4-2-3-2-|-5-4-2-5-4-2-2-2-5-4-2-5-4-2-1---|
|-3-2-0-3-2-1-0-0-3-2-0-3-2-0-1-0-|-3-2-0-3-2-0-0-0-3-2-0-3-2-0-----|
  . . . . . . . . . . . . . . . .   . . . . . . . . . . . . . .



 RIFF 6A INTERLUDE

|KING
|-------------------------------------------------|
|-------------------------------------------------|
|-------------------------------------------------|
|-------------------------------------------------|
|-2-----------------------------------------------|
|-0-----------------------------------------------|
|  x
|
|HANNEMAN
|-------------------------------------------------|
|-------------------------------------------------|
|-------------------------------------------------|
|-------------------9-----8-----------7-----------|
|-7-----8----10-----------------9-----------8-----|
|---0-0---0-0---0-0---0-0---0-0---0-0---0-0---0-0-|
    . .   . .   . .   . .   . .   . .   . .   . .


|KING
|-------------------------------------------------|
|-------------------------------------------------|
|-------------------------------------------------|
|-------------------------------------------------|
|-2-----2-----2-----2-----2-----2-----2-----2-----|
|-0-----0-----0-----0-----0-----0-----0-----0-----|
| .x    .x    .x    .x    .x    .x    .x    .x
|
|HANNEMAN                                   A.H.
|-------------------------------------------------|
|-------------------------------------------------|
|-------------------------------------------------|
|-------------------9-----8-----------7-----------|
|-7-----8----10-----------------9-----------8b^^--|
|---0-0---0-0---0-0---0-0---0-0---0-0---0-0-------|
    . .   . .   . .   . .   . .   . .   . .



|KING
|-------------------------------------------------|
|-------------------------------------------------|
|-------------------------------------------------|
|-------------------------------------------------|
|-2-----2-----2-----2-----2-----2-----2-----3-----|
|-0-----0-----0-----0-----0-----0-----0-----1-----|
| .x    .x    .x    .x    .x    .x    .x
|
|HANNEMAN
|-------------------------------------------------|
|-------------------------------------------------|
|-------------------------------------------------|
|-------------------9-----8-----------7-----------|
|-7-----8----10-----------------9-----------8b^^--|
|---0-0---0-0---0-0---0-0---0-0---0-0---0-0-------|
    . .   . .   . .   . .   . .   . .   . .



 RIFF 2B MAIN x1

|---------------------------------|---------------------------------|
|---------------------------------|---------------------------------|
|---------------------------------|---------------------------------|
|---------------------------------|-----------------------------3-2-|
|-5-4-2-5-4-2-2-2-5-4-2-5-4-2-3-2-|-5-4-2-5-4-2-2-2-5-4-2-5-4-2-1-0-|
|-3-2-0-3-2-0-0-0-3-2-0-3-2-0-1-0-|-3-2-0-3-2-0-0-0-3-2-0-3-2-0-----|
  . . . . . . . . . . . . . . . .   . . . . . . . . . . . . . . . .


|---------------------------------|---------------------------------|
|---------------------------------|---------------------------------|
|---------------------------------|---------------------------------|
|---------------------------------|---------------------------------|
|-5-4-2-5-4-3-2-2-5-4-2-5-4-2-3-2-|-5-4-2-5-4-2-2-2-5-4-2-5-4-2-8\\-|
|-3-2-0-3-2-1-0-0-3-2-0-3-2-0-1-0-|-3-2-0-3-2-0-0-0-3-2-0-3-2-0-6\\-|
  . . . . . . . . . . . . . . . .   . . . . . . . . . . . . . .



 RIFF 7 BREAK x1

|-------------------------------------------------|
|-------------------------------------------------|
|-------------------------------------------------|
|-------------------------------------------------|
|-2-----2-----2-----2-----2-----2-----2-----2-----|
|-0-----0-----0-----0-----0-----0-----0-----0-----|
  .x    .x    .x    .x    .x    .x    .x    .x


|KING
|-------------------------------------------------|
|-------------------------------------------------|
|-------------------------------------------------|
|-------------------------------------------------|
|-2-----2-----2-----2-----2-----2-----2-----3-----|
|-0-----0-----0-----0-----0-----0-----0-----1-----|
| .x    .x    .x    .x    .x    .x    .x
|
|HANNEMAN
|-------------------------------------------------|
|-------------------------------------------------|
|-------------------------------------------------|
|-------------------------------------------------|
|-2-----2-----2-----2-----2-----2-----2-----------|
|-0-----0-----0-----0-----0-----0-----0---/13\\\\-|
  .x    .x    .x    .x    .x    .x    .x



 RIFF 6A INTERLUDE x1

|BOTH
|-------------------------------------------------|
|-------------------------------------------------|
|-------------------------------------------------|
|-------------------9-----8-----------7-----------|
|-7-----8----10-----------------9-----------8-----|
|---0-0---0-0---0-0---0-0---0-0---0-0---0-0---0-0-|
    . .   . .   . .   . .   . .   . .   . .   . .

|KING                                        TRILL
|-------------------------------------------------|
|-------------------------------------------------|
|-------------------------------------------------|
|-------------------9-----8-----------7-----------|
|-7-----8----10-----------------9-----------8h9p8-|
|---0-0---0-0---0-0---0-0---0-0---0-0---0-0-------|
|   . .   . .   . .   . .   . .   . .   . .
|
|HANNEMAN                                   TRILL
|-------------------------------------------------|
|-------------------------------------------------|
|-------------------------------------------------|
|-------------------9-----8-----------7-----6h7p6-|
|-7-----8----10-----------------9-----------------|
|---0-0---0-0---0-0---0-0---0-0---0-0---0-0-------|
    . .   . .   . .   . .   . .   . .   . .


|BOTH
|-------------------------------------------------|
|-------------------------------------------------|
|-------------------------------------------------|
|-------------------9-----8-----------7-----------|
|-7-----8----10-----------------9-----------8-----|
|---0-0---0-0---0-0---0-0---0-0---0-0---0-0---0-0-|
    . .   . .   . .   . .   . .   . .   . .   . .

|KING                                        TRILL
|-------------------------------------------------|
|-------------------------------------------------|
|-------------------------------------------------|
|-------------------9-----8-----------7-----------|
|-7-----8----10-----------------9-----------8h9p8-|
|---0-0---0-0---0-0---0-0---0-0---0-0---0-0-------|
|   . .   . .   . .   . .   . .   . .   . .
|
|HANNEMAN                                   TRILL
|-------------------------------------------------|
|-------------------------------------------------|
|-------------------------------------------------|
|-------------------9-----8-----------7-----6h7p6-|
|-7-----8----10-----------------9-----------------|
|---0-0---0-0---0-0---0-0---0-0---0-0---0-0-------|
    . .   . .   . .   . .   . .   . .   . .


|BOTH
|-------------------------------------------------|
|-------------------------------------------------|
|-------------------------------------------------|
|-------------------9-----8-----------7-----------|
|-7-----8----10-----------------9-----------8-----|
|---0-0---0-0---0-0---0-0---0-0---0-0---0-0---0-0-|
    . .   . .   . .   . .   . .   . .   . .   . .

|BOTH                                       TRILL
|-------------------------------------------------|
|-------------------------------------------------|
|-------------------------------------------------|
|-------------------9-----8-----------7-----------|
|-7-----8----10-----------------9-----------8h9p8-|
|---0-0---0-0---0-0---0-0---0-0---0-0---0-0-------|
    . .   . .   . .   . .   . .   . .   . .



 FILL 4

|-------------------|-----------------------------|
|-------------------|-----------------------------|
|-------------------|-----------------------------|
|-------------------|-------------3--2------------|
|-2-----2-----2-----|---2--1b^^---------3--2b^^---|
|-0-----0-----0-----|-0---------------------------|
  .x    .x    .x



 RIFF 2 MAIN x1

 RIFF 3 VERSE x3


 FILL 5 END

|-----------|
|-----------|
|-----------|
|-----------|
|-5---2-2---|
|-3---0-0---|
      . .x

5. Perversions of Pain

Tuning Eb


 RIFF 1 INTRO x1

|-----------------------------|-----------------------------|
|-----------------------------|-----------------------------|
|-----------------------------|-----------------------------|
|-4---------------------------|-4---------------------------|
|-2------2------2------1------|-2------3------2------1------|
|--------3------2------1------|--------3------2------1------|



|-----------------------------|-----------------------------|
|-----------------------------|-----------------------------|
|-----------------------------|-----------------------------|
|-4---------------------------|-4---------------------------|
|-2------2------2------1------|-2------4------3------7------|
|--------3------2------1------|--------2------1------5------|




 RIFF 1A VERSE x3

|-----------------------------|-----------------------------|
|-----------------------------|-----------------------------|
|-----------------------------|-----------------------------|
|-4---------------------------|-4---------------------------|
|-2------2------2------1------|-2------3------2------1------|
|---0000-3-0000-2-0000-1-0000-|---0000-3-0000-2-0000-1-0000-|
    ....   ....   ....   ....     ....   ....   ....   ....


|-----------------------------|-----------------------------|
|-----------------------------|-----------------------------|
|-----------------------------|-----------------------------|
|-4---------------------------|-4---------------------------|
|-2------2------2------1------|-2------4------3------7------|
|---0000-3-0000-2-0000-1-0000-|--------2------1------5------|
    ....   ....   ....   ....



 RIFF 2 CHORUS x1

|KING CLEAN                                                 DISTORTED
|---------------------------------|---------------------------------|
|---------------------------------|---------------------------------|
|-----4-------3-------5-------9---|-----4-------3-------5-----------|
|---2---2---2-------3---3---7---7-|---2---2---2-------3---3-7---6---|
|---------------------------------|---------------------------5---4-|
|-0-------0-------0-------0-------|-0-------0-------0---------------|
|                                                             .   .
|
|HANNEMAN
|---------------------------------|---------------------------------|
|---------------------------------|---------------------------------|
|---------------------------------|---------------------------------|
|---------------------------------|-------------------------7---6---|
|-2---------------2---------------|-2---------------2---------5---4-|
|-0---------------0---------------|-0---------------0---------------|
                                                              .   .



 RIFF 1A VERSE x2

 RIFF 2 CHORUS x1


 RIFF 3 INTERLUDE

|KING
|-------------------------------------------------------------|
|-------------------------------------------------------------|
|-------------------------------------------------------------|
|---2-1-----3-2-------6-5-----8---5-4-------4-3-----5-4-----7-|
|-------2-------3-2-------6-5---------5-4-------4-------5-4---|
|-0-------0---------0-----------0---------0-------0-----------|
| .       .         .           .         .       .
|
|HANNEMAN
|-------------------------------------------------------------|
|-------------------------------------------------------------|
|-------------------------------------------------------------|
|-------------------------------------------------------------|
|---2-1-----3-2-------4-3-----6---5-4-------2-1-----3-2-----5-|
|-0-----2-0-----3-2-0-----4-3---0-----5-4-0-----2-0-----3-2---|
  .       .         .           .         .       .


|KING
|---------------------------------------------------------------|
|---------------------------------------------------------------|
|---------------------------------------------------------------|
|---4-3-------3-2-----5---------------------------------3-2-----|
|-------4-3-------3-2-----2-1-----3-2-------4-3-----6-------3-2-|
|-0---------0-----------0-----2-0-----3-2-0-----4-3---0---------|
| .         .           .       .         .           .
|
|HANNEMAN
|---------------------------------------------------------------|
|---------------------------------------------------------------|
|---------------------------------------------------------------|
|---------------------------------------------------------------|
|---4-3-------5-4-----7---2-1-----3-2-------4-3-----6---5-4-----|
|-0-----4-3-0-----5-4---0-----2-0-----3-2-0-----4-3---0-----5-4-|
  .         .           .       .         .           .



 RIFF 4 BREAK x1

|KING
|-----------------------------------------------------|
|-----------------------------------------------------|
|-----------------------------------------------------|
|-----------------------------------------------------|
|----------5-4----------4-3----------2-1----------541-|
|-00000000-3-2-00000000-2-1-00000000-2-1-00000000-321-|
| ........     ........     ........     ........
|
|HANNEMAN
|-----------------------------------------------------|
|-----------------------------------------------------|
|-----------------------------------------------------|
|-----------------------------------------------------|
|-2--------5-4----------4-3----------2-1----------541-|
|-0--------3-2----------2-1----------2-1----------321-|
   x          x            x            x            x


|KING
|-----------------------------------------------------|
|-----------------------------------------------------|
|-----------------------------------------------------|
|-----------------------------------------------------|
|----------5-4----------4-3----------2-1----------541-|
|-00000000-3-2-00000000-2-1-00000000-2-1-00000000-321-|
| ........     ........     ........     ........
|
|HANNEMAN
|-----------------------------------------------------|
|-----------------------------------------------------|
|-----------------------------------------------------|
|-----------------------------------------------------|
|---------------------------------------------\\\\\\1-|
|---------------------------------------------\\\\\\1-|
                                                     x



 FILL 1

|-----------------------------------------------------|
|-----------------------------------------------------|
|-----------------------------------------------------|
|-----------------------------------------------------|
|----------3-2----------2-1----------1-2--------------|
|-00000000-3-2-00000000-2-1-00000000-1-0--------------|
  ........     ........     ........



 SOLO KING
  WAH A.H.   WAH      WAH_____________________________ WAH    WAH
|------------------------------15-16-18-16-15--------------------------|
|-////18b^^--18b^^^^--15-17-18----------------18-17-15-18b^^--18b^^^^--|
|----------------------------------------------------------------------|
|----------------------------------------------------------------------|
|----------------------------------------------------------------------|
|----------------------------------------------------------------------|

  WAH___________________________________ WAH___  WAH   WAH___  WAH
|---------------------------------------------------------------------|
|-15-18-17-15---------------------------------------------------------|
|-------------18-16-15------------------------------------------------|
|----------------------17-15-14----------101010--9b^^-----------------|
|-------------------------------16-14-13---------------121212--11b^^--|
|---------------------------------------------------------------------|

  WAH___  WAH   WAH___________________________ WAH___  WAH   WAH___  WAH
|------------------------------------------------------------------------------|
|------------------------------------------------------------------------------|
|---------------9-10-12-10-9---------------------------------------------------|
|-101010--9b^^---------------11-9-8-11-9-8--------101010--9b^^-----------------|
|------------------------------------------10-8-7---------------121212--11b^^--|
|------------------------------------------------------------------------------|

  WAH___  WAH   WAH______________________________________________
|---------------------------------------------161616-15-191919-18-|
|-----------------------------------151515-14---------------------|
|---------------101010--9-131313-12-------------------------------|
|-101010--9b^^----------------------------------------------------|
|-----------------------------------------------------------------|
|-----------------------------------------------------------------|

  WAH___
|-222222-21b^^^^\\\\----|
|-----------------------|
|-----------------------|
|-----------------------|
|-----------------------|
|-----------------------|




 RIFF 4A x4 UNDER SOLO

|-----------------------------------------------------|
|-----------------------------------------------------|
|-----------------------------------------------------|
|-----------------------------------------------------|
|----------5-4----------4-3----------2-1----------541-|
|-00000000-3-2-00000000-2-1-00000000-2-1-00000000-321-|
  ........     ........     ........     ........



 RIFF 5 INTERLUDE x1

|KING
|-----------------------------------------------------------------|
|-----5-------6-------9-------8-------5-------4-------------------|
|---4---4---5---5---8---8---7---7---4---4---3---3-----4-------3---|
|-2-------3-------6-------5-------2-------1---------4---4---3---3-|
|-------------------------------------------------2-------1-------|
|-----------------------------------------------------------------|
|
|
|HANNEMAN
|-----------------------------------------------------------------|
|-----------------------------------------------------------------|
|-----------------------------------------------------------------|
|-9------10------13------12-------9-------8-----------------------|
|-7-------8------11------10-------7-------6-------9-------8-------|
|-------------------------------------------------7-------6-------|



|KING
|-----------------------------------------------------------------|
|-----5-------6-------8-------7-------5-------4-------------------|
|---4---4---5---5---7---7---6---6---4---4---3---3-----4-------3---|
|-2-------3-------5-------4-------2-------1---------4---4---3---3-|
|-------------------------------------------------2-------1-------|
|-----------------------------------------------------------------|
|
|
|HANNEMAN
|-----------------------------------------------------------------|
|-----------------------------------------------------------------|
|-----------------------------------------------------------------|
|-9------10------12------11-------9-------8-----------------------|
|-7-------8------10-------9-------7-------6-------9-------8-------|
|-------------------------------------------------7-------6-------|




 RIFF 1B BREAK x1

|-----------------------------|-----------------------------|
|-----------------------------|-----------------------------|
|-----------------------------|-----------------------------|
|-4---------------------------|-4---------------------------|
|-2------2------2------1------|-2------4------3------7------|
|--------3------2------1------|--------2------1------5------|




 RIFF 1A VERSE x2

 RIFF 2 CHORUS x1


 RIFF 6A INTO INTERLUDE x1

|KING
|-----------------------------------|-----------------------------------|
|-----------------------------------|-----------------------------------|
|-----------------------------------|-----------------------------------|
|-9\\\\-----------------------------|-----------------------------------|
|-7\\\\-----------------------------|---------------x\x\x\x\x\x\-x\\\\--|
|-7\\\\-----------------------------|-----------------------------------|
|
|
|HANNEMAN                       A.H.
|-----------------------------------|-----------------------------------|
|-----------------------------------|-----------------------------------|
|-----------------------------------|-----------------------------------|
|--------------10b^^--9---------8^--|--------------10b^^--9---------8^--|
|-----8---7--------------10-9-------|-----8---7--------------10-9-------|
|-0-0---0---0-0---0-0---0-----0-----|-0-0---0---0-0---0-0---0-----0-----|
  . .   .   . .   . .   .     .       . .   .   . .   . .   .     .



 RIFF 6 INTERLUDE x1

|KING
|-----------------------------------|-----------------------------------|
|-----------------------------------|-----------------------------------|
|-----------------------------------|-----------------------------------|
|--------------10b^^--9---------8^--|-----------------------------------|
|-----8---7--------------10-9-------|-----7---6-----2-----1---6-6---1-5-|
|-0-0---0---0-0---0-0---0-----0-----|-0-0---0---0-0-2---0---0-4-4---1-5-|
| . .   .   . .   . .   .     .       . .   .   . .     .   .    x
|
|HANNEMAN
|-----------------------------------|-----------------------------------|
|-----------------------------------|-----------------------------------|
|-----------------------------------|-----------------------------------|
|--------------10b^^--9---------8^--|-----------------------------------|
|-----8---7--------------10-9-------|-----7---6---------------6-6---1-5-|
|-0-0---0---0-0---0-0---0-----0-----|-0-0---0---0-0-7b^-0-6-0-4-4---1-5-|
  . .   .   . .   . .   .     .       . .   .   . .     .   .    x


|KING
|-----------------------------------|--------------------------------------|
|-----------------------------------|--------------------------------------|
|-----------------------------------|--------------------------------------|
|-----------------------------------|-----7---6----------------------------|
|-----8---7-----8b^^--7---------6^--|-------------------------6-6--3-3-3-3-|
|-0-0---0---0-0---0-0---0-8-7-0-----|-0-0---0---0-0-7b^-0-6-0-4-4--1-1-1-1-|
| . .   .   . .   . .   .     .       . .   .   . .     .   .    x
|
|HANNEMAN
|-----------------------------------|--------------------------------------|
|-----------------------------------|--------------------------------------|
|--------------10b^^--9---------8^--|--------------------------------------|
|--------------10b^^--9--10-9---8^--|--------------------------------------|
|-----8---7--------------10-9-------|-----7---6---------------6-6--3-3-3-3-|
|-0-0---0---0-0---0-0---0-----0-----|-0-0---0---0-0-7b^-0-6-0-4-4--1-1-1-1-|
  . .   .   . .   . .   .     .       . .   .   . .     .   .    x



 RIFF 7 OUTRO x1

|-----------------------------------------------------------------|
|-----------------------------------------------------------------|
|-----------------------------------------------------------------|
|-----------------------------------------------------------------|
|--------------2--------------2--------------1--------------5-3-1-|
|-000000000000-3-000000000000-2-000000000000-1-000000000000-3-2-1-|
  ............   ............   ............   ............


|-----------------------------------------------------------------|
|-----------------------------------------------------------------|
|-----------------------------------------------------------------|
|-----------------------------------------------------------------|
|--------------3--------------2--------------1--------------5-3-1-|
|-000000000000-3-000000000000-2-000000000000-1-000000000000-3-2-1-|
  ............   ............   ............   ............


|-----------------------------------------------------------------|
|-----------------------------------------------------------------|
|-----------------------------------------------------------------|
|-----------------------------------------------------------------|
|--------------2--------------2--------------1--------------5-3-1-|
|-000000000000-3-000000000000-2-000000000000-1-000000000000-3-2-1-|
  ............   ............   ............   ............


|-----------------------------------------------------------------|
|-----------------------------------------------------------------|
|-----------------------------------------------------------------|
|-----------------------------------------------------------------|
|--------------3--------------2--------------1--------------5-3-1-|
|-000000000000-3-000000000000-2-000000000000-1-000000000000-3-2-1-|
  ............   ............   ............   ............      x

6. Love To Hate

Tuning Db


 RIFF 1 INTRO

|KING
|--------------------------------------|
|--------------------------------------|
|--------------------------------------|
|--------------------------------------|
|-5------------------------------------|
|-3------------------------------------|
|  x
|
|HANNEMAN
|--------------------------------------|
|--------------------------------------|
|--------------------------------------|
|--------------------------------------|
|-5-5-5--6-6-6--9-9-9--8-8-8--8-7-7-7--|
|-3-3-3--4-4-4--7-7-7--6-6-6--6-5-5-5--|


|KING x3
| WAH
|--------------------------------------|
|--------------------------------------|
|-7------------------------------------|
|-5------------------------------------|
|-5------------------------------------|
|--------------------------------------|
|       x
|
|HANNEMAN x3
|--------------------------------------|
|--------------------------------------|
|--------------------------------------|
|--------------------------------------|
|-5-5-5--6-6-6--9-9-9--8-8-8--8-7-7-7--|
|-3-3-3--4-4-4--7-7-7--6-6-6--6-5-5-5--|




 RIFF 1A VERSE x8

  WAH
|--------------------------------------|
|--------------------------------------|
|-7------------------------------------|
|-5------------------------------------|
|-5------6-6-6--9-9-9--8-8-8--8-7-7-7--|
|--------4-4-4--7-7-7--6-6-6--6-5-5-5--|




 RIFF 2 CHORUS x1

|BOTH x2
|--------------------------------------|
|--------------------------------------|
|--------------------------------------|
|--------------------------------------|
|-4-4-4--2-2-2--5-5-5--8-8-8--8-7-7-7--|
|-2-2-2--0-0-0--3-3-3--6-6-6--6-5-5-5--|
  . . .  . . .  . . .  . . .  . . . .



|KING
|--------------------------------------|
|--------------------------------------|
|--------------------------------------|
|--------------------------------------|
|-4-4-4--2-2-2--5-5-5--8-8-8--8-7-7-7--|
|-2-2-2--0-0-0--3-3-3--6-6-6--6-5-5-5--|
| . . .  . . .  . . .  . . .  . . . .
|
|HANNEMAN
|--------------------------------------|
|--------------------------------------|
|--------------------------------------|
|--------------------------------------|
|-4------2------5------8------8-7-7-7--|
|-2------0------3------6------6-5-5-5--|
                                . . .


|KING
|--------------------------------------|
|--------------------------------------|
|--------------------------------------|
|11------9-----12-----15-----15141414--|
|-9------7-----10-----13-----13121212--|
|--------------------------------------|
|
|
|HANNEMAN
|--------------------------------------|
|--------------------------------------|
|--------------------------------------|
|--------------------------------------|
|-4------2------5------8------8-7-7-7--|
|-2------0------3------6------6-5-5-5--|
                                . . .



 RIFF 1A VERSE x8

 RIFF 3 BREAK x1

|KING WITH WAH
|          A.H.      A.H.            A.H.     A.H.
|------------------------------------------------------|
|------------------------------------------------------|
|------------------------------------------------------|
|----------10b^^---9--------------8--7-----------------|
|-----7--8-----------10--9b^^-----------8--7--6--------|
|-0----------------------------------------------7--6--|
| .
|
|HANNEMAN
|------------------------------------------------------|
|------------------------------------------------------|
|------------------------------------------------------|
|------------------------------------------------------|
|-2----------------------------------------------------|
|-0----------------------------------------------------|
   x



|KING WITH WAH
|          A.H.          A.H.           A.H.     A.H.
|------------------------------------------------------|
|------------------------------------------------------|
|------------------------------------------------------|
|----------10b^^---9--------------8--7-----------------|
|-----7--8-----------10--9b^^-----------8--7--6--------|
|-0----------------------------------------------7--6--|
| .
|
|HANNEMAN
|------------------------------------------------------|
|------------------------------------------------------|
|------------------------------------------------------|
|------------------------------------------------------|
|------------------------------2-----------------------|
|------------------------------0-----------------------|
                                x



 RIFF 1A VERSE x8

 RIFF 2 CHORUS x1


 SOLO 1 KING
  WAH & BAR   WAH   WAH   WAH   WAH   WAH & BAR            WAH_______
|---------------------------------------------------------------------------
|-22b/\/\/\\--22b^--22b^--22b^--22b^--22b////////\/\/\\---------------------
|-21b/\/\/\\--21b^--21b^--21b^--21b^--21b////////\/\/\\---------------------
|----------------------------------------------------------121212-11b^^^^---
|---------------------------------------------------------------------------
|---------------------------------------------------------------------------

  WAH_______  WAH____  WAH___        WAH     WAH____        WAH____________
|---------------------------------------------------------------------------
|-------------------------------------------//13-11b^^^^----111111-11-13-14-
|------------------------------------x\\\\----------------------------------
|-101010-999--555-444----------------x\\\\----------------------------------
|----------------------666-4b^^^^-------------------------------------------
|---------------------------------------------------------------------------

  WAH_________________________________________________________________________
|---------------------------------------------------------------------------
|-13-11----------111111-11-13-14-13-11----------111111-11-13-14-13-11-------
|-------14-12-11-----------------------14-12-11----------------------141211-
|---------------------------------------------------------------------------
|---------------------------------------------------------------------------
|---------------------------------------------------------------------------

  WAH________________________________________________________________
|---------------------------------------------------------------------------
|-111111-11-13-14-13-11----------111111-11-13-14-13-11----------13-11b^^^^--
|-----------------------14-12-11-----------------------14-12-11-------------
|---------------------------------------------------------------------------
|---------------------------------------------------------------------------
|---------------------------------------------------------------------------

  WAH_____________________________________________________________________
|--------------------------------------------------------------------------|
|-111111-11-13-14-13-11----------------11-13-14-13-14-16-14-16-17-16-17-19-|
|-----------------------14-12-11-12-14-------------------------------------|
|--------------------------------------------------------------------------|
|--------------------------------------------------------------------------|
|--------------------------------------------------------------------------|

  WAH_____________________________________  WAH    WAH   WAH   WAH
|-------------------/23-21b^21212121212121---------------------------|
|-17-19-20-19-20-22-------------------------14b^^--14b^--14b^--14b^--|
|-------------------------------------------14b^^--14b^--14b^--14b^--|
|--------------------------------------------------------------------|
|--------------------------------------------------------------------|
|--------------------------------------------------------------------|

  WAH WAH WAH
|-------------------|
|-14b-14b-14b^\\----|
|-14b-14b-14b^\\----|
|-------------------|
|-------------------|
|-------------------|
                x



 RIFF 4 x8 UNDER SOLO 1

|-----------------------------------|
|-----------------------------------|
|-----------------------------------|
|-----------------------------------|
|-4-4-4-4-4-4-4-4--2-2-2--5-5-5--8--|
|-2-2-2-2-2-2-2-2--0-0-0--3-3-3--6--|
  . . . . . . . .  . . .  . . .



 RIFF 2A x2 UNDER SOLO 1

|--------------------------------------|
|--------------------------------------|
|--------------------------------------|
|--------------------------------------|
|-4-4-4--2-2-2--5-5-5--8-8-8--8-7-7-7--|
|-2-2-2--0-0-0--3-3-3--6-6-6--6-5-5-5--|
  . . .  . . .  . . .  . . .  . . . .


 FILL 1 UNDER SOLO 1

|------------|
|------------|
|------------|
|------------|
|-2----------|
|-0----------|
   x



 SOLO 2 KING
  N.H. BAR   WAH & BAR  WAH & BAR            WAH___________________________
|-12//\\\\\\\\\\\\\\\\------------------------------------------------------
|-12//\\\\\\\\\\\\\\\\------------------------------------------------------
|-12//\\\\\\\\\\\\\\\\-----------------------3h6-4h7-5h8-6h9-7h10-8h11-9h12-
|-----------------------0//////\\/\\----------------------------------------
|------------0\\\\\\\\----------------x\\\\---------------------------------
|---------------------------------------------------------------------------

  WAH____________________________________________________________________
|--------------------------------------------------------------------------|
|--------------------------------------------------------------------------|
|-10h13-11h14-12h15-13h16-14h17-15h18-16h19-17h20-18h21-19h22-20h23-21h24--|
|--------------------------------------------------------------------------|
|--------------------------------------------------------------------------|
|--------------------------------------------------------------------------|


|------------|
|------------|
|-x\\\\\\----|
|-x\\\\\\----|
|------------|
|------------|




 RIFF 5 x1 UNDER SOLO 2

|------------------------------------------------------------------------|
|------------------------------------------------------------------------|
|------------------------------------------------------------------------|
|------------------------------------------------------------------------|
|-2----------------------------------------------------------------------|
|-0----------------------------------------------------------------------|




 RIFF 1A VERSE x8

 RIFF 2 CHORUS x1

 FILL 1


 RIFF 3 BREAK x1

|KING WITH WAH
|------------------------------------------------------|
|------------------------------------------------------|
|------------------------------------------------------|
|----------10b^^---9--------------8--7-----------------|
|-----7--8-----------10--9b^^-----------8--7--6--------|
|-0----------------------------------------------7--6--|
| .
|
|HANNEMAN
|------------------------------------------------------|
|------------------------------------------------------|
|------------------------------------------------------|
|----------10b^^---9--------------8--7-----------------|
|-----7--8-----------10--9b^^-----------8--7--6--------|
|-0----------------------------------------------7--6--|
| .



|KING WITH WAH
|------------------------------------------------------|
|------------------------------------------------------|
|------------------------------------------------------|
|----------10b^^---9--------------8--7-----------------|
|-----7--8-----------10--9b^^-----------8--7--6--------|
|-0----------------------------------------------7--6--|
| .
|
|HANNEMAN
|------------------------------------------------------|
|------------------------------------------------------|
|-----------9b^^---8--------------7--6-----------------|
|---------------------9--8b^^-----------7--------------|
|-----7--8---------------------------------2--1--------|
|-0----------------------------------------------2--1--|
  .


|KING WITH WAH
|------------------------------------------------------|
|------------------------------------------------------|
|------------------------------------------------------|
|----------10b^^---9--------------8--7-----------------|
|-----7--8-----------10--9b^^-----------8--7--6--------|
|-0----------------------------------------------7--6--|
| .
|
|HANNEMAN
|------------------------------------------------------|
|------------------------------------------------------|
|----------10b^^---9--------------8--7-----------------|
|--------------------10--9b^^-----------8--------------|
|-----7--8---------------------------------2--1--------|
|-0----------------------------------------------2--1--|
  .



 FILL 2 END

|------------|
|------------|
|------------|
|------------|
|-2----------|
|-0----------|
        x

7. Desire

Tuning Db


 RIFF 1 INTRO x4

|KING CLEAN
|------12----------13------------------------------|
|---10----10----11---------------------------------|
|--------------------------------------------------|
|--------------------------------------------------|
|-0-----------0------------------------------------|
|--------------------------------------------------|



 RIFF 2 INTRO x4

|KING CLEAN
|--------------------------------------------------|
|-------------------------------8-----------11-----|
|-------9-----------8--------5-----5-----8------8--|
|----7-----7-----6-----6---------------------------|
|-0-----------0-----------0-----------0------------|
|--------------------------------------------------|



 FILL 1

|BOTH DISTORTED
|--------------------------------------------------|
|--------------------------------------------------|
|-------9----------10b^^^^-------------------------|
|----7-----7-----8---------------------------------|
|-0-----------0------------------------------------|
|--------------------------------------------------|



 RIFF 2A INTRO x4

|KING
| WAH         WAH         WAH         WAH
|--------------------------------------------------|
|-------------------------------8-----------11-----|
|-------9-----------8--------5-----5-----8------8--|
|----7-----7-----6-----6---------------------------|
|-0-----------0-----------0-----------0------------|
|--------------------------------------------------|
|
|
|HANNEMAN
|--------------------------------------------------|
|-------------------------------8-----------11-----|
|-------9-----------8--------5-----5-----8------8--|
|----7-----7-----6-----6---------------------------|
|-0-----------0-----------0-----------0------------|
|--------------------------------------------------|




 RIFF 3 BREAK x1

|KING
|---------------------------------|---------------------------------|
|---------------------------------|---------------------------------|
|---------------------------------|---------------------------------|
|-----------------------------3---|-----------------------------3---|
|-2-----1-------3-------------1---|-2-----1-------3-------------1---|
|-0-0-0-0---000-1---0-0-0-000-----|-0-0-0-0---000-1---0-0-0-000-----|
|   . .     ...     . . . ...         . .     ...     . . . ...
|
|HANNEMAN
|---------------------------------|---------------------------------|
|---------------------------------|---------------------------------|
|---------------------------------|---------------------------------|
|-----------------------------3---|-----------------------------3---|
|-2---------------------------1---|-2---------------------------1---|
|-0-------------------------------|-0-------------------------------|
   x



 RIFF 4 VERSE x1

|x2
|--------------------------------|-------------------------------|
|--------------------------------|-------------------------------|
|--------------------------------|-------------------------------|
|-----2-------------0---3---2b^--|-----2-----------------5---4---|
|-------2-------1----------------|-------2-------1---3---3---2---|
|-0-0-------0--------------------|-0-0-------0-------1-----------|
  . .                              . .


|KING
|--------------------------------|-------------------------------|
|--------------------------------|-------------------------------|
|--------------------------------|-------------------------------|
|-----2-------------0---3---2b^--|-----2-----------------5---4---|
|-------2-------1----------------|-------2-------1---3---3---2---|
|-0-0-------0--------------------|-0-0-------0-------1-----------|
| . .                              . .
|
|HANNEMAN
|--------------------------------|-------------------------------|
|--------------------------------|-------------------------------|
|-------------------0---3---2b^--|-------------------------------|
|-----2--------------------------|-----2-----------------5---4---|
|-------2-------1----------------|-------2-------1---3---3---2---|
|-0-0-------0--------------------|-0-0-------0-------1-----------|
  . .                              . .


|KING
|--------------------------------|-------------------------------|
|--------------------------------|-------------------------------|
|--------------------------------|-------------------------------|
|-----2-------------0---3---2b^--|-----2-----------------5---4---|
|-------2-------1----------------|-------2-------1---3---3---2---|
|-0-0-------0--------------------|-0-0-------0-------1-----------|
| . .                              . .
|
|HANNEMAN
|--------------------------------|-------------------------------|
|-------------------3---6---5b^--|-------------------------------|
|--------------------------------|-------------------------------|
|-----2--------------------------|-----2-----------------5---4---|
|-------2-------1----------------|-------2-------1---3---3---2---|
|-0-0-------0--------------------|-0-0-------0-------1-----------|
  . .                              . .



 FILL 2

|---------------------------------|
|---------------------------------|
|---------------------------------|
|---------------------------------|
|-7-7-7---6-6-6---1-1-1---4-4-4---|
|-5-5-5---4-4-4---1-1-1---4-4-4---|



 RIFF 2A CHORUS x4

 RIFF 4 VERSE x1


 RIFF 2B BREAK x1

|KING
|--------------------------------------------------|
|--------------------------------------------------|
|--------------------------------------------------|
|--------------------------------------------------|
|-7\\\\--------------------------------------------|
|-5\\\\--------------------------------------------|
|
|
|HANNEMAN
|--------------------------------------------------|
|-------------------------------8-----------11-----|
|-------9-----------8--------5-----5-----8------8--|
|----7-----7-----6-----6---------------------------|
|-0-----------0-----------0-----------0------------|
|--------------------------------------------------|



 RIFF 2A CHORUS x4


 SOLO 1 HANNEMAN
   WAH_        WAH___________________________________________________________
|-//12b^^^^----13h14p13-----------------------------------------------------
|-----------------------16-15-13-16-15-13-----------------------------------
|-----------------------------------------16-14-13-16-14-13-----------------
|-----------------------------------------------------------15-13-12-151312-
|---------------------------------------------------------------------------
|---------------------------------------------------------------------------
[ Tab from: http://www.guitaretab.com/s/slayer/75960.html ]
  WAH WAH    WAH  WAH  WAH      WAH____________________
|--------------------------------------------------------------|
|--------------------------------------------------------------|
|---------------------------------------------------13b^^^^----|
|-------------------------------------------13--12-------------|
|-14--12^^---11^--12^--11b^^----11--14--12---------------------|
|--------------------------------------------------------------|

  WAH_______________        WAH    WAH    WAH   WAH        WAH_____________
|----------------------------------------------------------11-10------------
|-------------4-6-4b^^^^----5b^^---7b^^---9b^^-------------------12-10-9----
|-------4-5-7-----------------------------------12b^^^^------------------11-
|-3-4-6---------------------------------------------------------------------
|---------------------------------------------------------------------------
|---------------------------------------------------------------------------

  WAH_______________    WAH        WAH    WAH    WAH    WAH      WAH________
|-11-10---------------------------------------------------------------------
|-------13-12-10-------------------11b^^--14b^^--13b^^--14b^^----13-14-1614-
|----------------12b^^--13b^^^^---------------------------------------------
|---------------------------------------------------------------------------
|---------------------------------------------------------------------------
|---------------------------------------------------------------------------

  WAH_________________________________________________________
|-----------------------------------------------------------------------|
|-13----13-14-16-14-13----13-14-16-14-13----13-14-16-14-13--------------|
|----15----------------15----------------15----------------15b^^\\\\----|
|-----------------------------------------------------------------------|
|-----------------------------------------------------------------------|
|-----------------------------------------------------------------------|




 RIFF 5 x8 UNDER SOLO

|---------------------------------|
|---------------------------------|
|---------------------------------|
|---------------------------------|
|-7-7-7-7-6-6-6-6-3-3-3-3-4-4-4-4-|
|-5-5-5-5-4-4-4-4-1-1-1-1-2-2-2-2-|
  . . . . . . . . . . . . . . . .



 RIFF 3 BREAK x1


 SOLO 2 KING
  WAH    WAH  WAH & BAR        WAH & BAR           WAH WAH & BAR
|--------------------------------------------------------------------|
|-11b^^--11b^-11b//\/\/\/\\------------------------------------------|
|-10b^^--10b^-10b//\/\/\/\\----0////\\\\\\\\/\/\\--/13-12\/\/\/\/\\--|
|--------------------------------------------------------------------|
|--------------------------------------------------------------------|
|--------------------------------------------------------------------|

  N.H. BAR               WAH & BAR/\/\/\/\/\/\/\/\/\/\/\/\/\/\/\/\/\/\/\/\
|-22\\\\///////\/\/\\------------------------------------------------------|
|-22\\\\///////\/\/\\------------------------------------------------------|
|------------------------0h4p3p0h4p3p0h4p3p0h4p3p0h4p3p0h4p3p0h4p3p0h4p3p0-|
|--------------------------------------------------------------------------|
|--------------------------------------------------------------------------|
|--------------------------------------------------------------------------|

  WAH N.H. BAR     WAH & BAR      WAH WAH   WAH    WAH    WAH
|------------------18b//\/\/\\----21b-21b^--21b^^--21b^^--21fb^r\\----|
|------------------21b//\/\/\\----24b-24b^--24b^^--24b^^--24fb^r\\----|
|-3///6\\\\\\\\-------------------------------------------------------|
|---------------------------------------------------------------------|
|---------------------------------------------------------------------|
|---------------------------------------------------------------------|




 RIFF 3A x2 UNDER SOLO

|---------------------------------|---------------------------------|
|---------------------------------|---------------------------------|
|---------------------------------|---------------------------------|
|-----------------------------3---|-----------------------------3---|
|-2-----1---------3-----------1---|-2-----1-------3-------------1---|
|-0-0-0-0---000-0-1---0-0-000-----|-0-0-0-0---000-1---0-0-0-000-----|
    . .     ... .     . . ...         . .     ...     . . . ...



 RIFF 3A VERSE x4


 FILL 2A

|KING
|---------------------------------|
|---------------------------------|
|---------------------------------|
|---------------------------------|
|-7\\\\---------------------------|
|-5\\\\---------------------------|
|
|
|HANNEMAN
|---------------------------------|
|---------------------------------|
|---------------------------------|
|---------------------------------|
|-7-7-7---6-6-6---1-1-1---4-4-4---|
|-5-5-5---4-4-4---1-1-1---4-4-4---|



 FILL 2B

|KING
|---------------------------------|
|---------------------------------|
|---------------------------------|
|---------------------------------|
|-7-------6-------1-------4-------|
|-5-------4-------1-------4-------|
|
|
|HANNEMAN
|---------------------------------|
|---------------------------------|
|-9-------8-------3-------6-------|
|-7-------6-------3-------6-------|
|---------------------------------|
|---------------------------------|




 RIFF 2A CHORUS x4

 FILL 1


 FILL 3 END

|KING
|------------------------|
|------------------------|
|------------------------|
|------------------------|
|-(0)--------------------|
|------------------------|



8. In The Name Of God

Tuning Db


 RIFF 1 INTRO x1

|x7               |x1
|-----------------|-----------------|
|-----------------|-----------------|
|-----------------|-----------------|
|-----------------|-----------------|
|-5-3-2---2-3-5-2-|-5-5-5-6---6-3---|
|-3-1-0---0-1-3-0-|-3-3-3-4---4-1---|
  . . .   . . . .



 RIFF 1A VERSE x1

|-----------------|-----------------|-----------------|-----------------|
|-----------------|-----------------|-----------------|-----------------|
|-----------------|-----------------|-----------------|-----------------|
|-----------------|-----------------|-----------------|-----------------|
|-5-3-2---2-3-5-2-|-5-3-2---2-3-5-2-|-5-3-2---2-3-5-2-|-5-5-5-6---6-3---|
|-3-1-0---0-1-3-0-|-3-1-0---0-1-3-0-|-3-1-0---0-1-3-0-|-3-3-3-4---4-1---|
  . . .   . . . .   . . .   . . . .   . . .   . . . .


|-----------------|-----------------|-----------------|-----------------|
|-----------------|-----------------|-----------------|-----------------|
|-----------------|-----------------|-----------------|-----------------|
|-----------------|-----------------|-----------------|-----------------|
|-5-3-2---2-3-5-2-|-5-3-2---2-3-5-2-|-5-3-2---2-3-5-2-|-6-6-6-5---5-3---|
|-3-1-0---0-1-3-0-|-3-1-0---0-1-3-0-|-3-1-0---0-1-3-0-|-4-4-4-3---3-1---|
  . . .   . . . .   . . .   . . . .   . . .   . . . .


|-----------------|-----------------|-----------------|-----------------|
|-----------------|-----------------|-----------------|-----------------|
|-----------------|-----------------|-----------------|-----------------|
|-----------------|-----------------|-----------------|-----------------|
|-5-3-2---2-3-5-2-|-5-3-2---2-3-5-2-|-5-3-2---2-3-5-2-|-6-6-6-3---3-2---|
|-3-1-0---0-1-3-0-|-3-1-0---0-1-3-0-|-3-1-0---0-1-3-0-|-4-4-4-1---1-0---|
  . . .   . . . .   . . .   . . . .   . . .   . . . .


|-----------------|-----------------|-----------------|-----------------|
|-----------------|-----------------|-----------------|-----------------|
|-----------------|-----------------|-----------------|-----------------|
|-----------------|-----------------|-----------------|-----------------|
|-5-3-2---2-3-5-2-|-5-3-2---2-3-5-2-|-5-3-2---2-3-5-2-|-5-5-5-3---3-2---|
|-3-1-0---0-1-3-0-|-3-1-0---0-1-3-0-|-3-1-0---0-1-3-0-|-3-3-3-1---1-0---|
  . . .   . . . .   . . .   . . . .   . . .   . . . .



 RIFF 2 CHORUS x2

|KING
|--------------------------------|--------------------------------|
|--------------------------------|--------------------------------|
|--------------------------------|--------------------------------|
|-------2------------------------|-------2------------------------|
|-2-------1----------------------|-2-------1----------3-5---3-2-3-|
|-0------------------------------|-0------------------1-3---1-0-1-|
|                                                        x
|
|HANNEMAN
|--------------------------------|--------------------------------|
|--------------------------------|--------------------------------|
|--------------------------------|--------------------------------|
|--------------------------------|--------------------------------|
|-2------------------------------|-2------------------3-5---3-2-3-|
|-0------------------------------|-0------------------1-3---1-0-1-|
                                                         x



 SOLO 1 KING DOUBLED SOUND 5 FRETS LOWER
  WAH__________________________________________________________  WAH
|----------------------------------------------------------------/9b^^^^----
|-9h12p9h12p9h12p9h12p9h12p9h12p9h12p9h12p9h12p9h12p9h12p9h12p9-------------
|---------------------------------------------------------------------------
|---------------------------------------------------------------------------
|---------------------------------------------------------------------------
|---------------------------------------------------------------------------

  WAH________________________      WAH____________________
|-101010------------------------------------9-10-12h13-12b^^^^----|
|--------111111-999---------------------8-9-----------------------|
|-------------------101010-9b^^----9-10---------------------------|
|-----------------------------------------------------------------|
|-----------------------------------------------------------------|
|-----------------------------------------------------------------|

  WAH________________
|-16h19p16h19p16h19p16h19p16h19p16h19p16-21b^^^^^^^^^^^^^^^^----|
|---------------------------------------------------------------|
|---------------------------------------------------------------|
|---------------------------------------------------------------|
|---------------------------------------------------------------|
|---------------------------------------------------------------|






 RIFF 3 x2 UNDER SOLO 1

|-----------------|-----------------|-----------------|-----------------|
|-----------------|-----------------|-----------------|-----------------|
|-----------------|-----------------|-----------------|-----------------|
|-----------------|-----------------|-----------------|-----------------|
|-5-3-2-3-2---2-3-|-5-3-2-3-2---2-3-|-5-3-2-3-2---2-3-|-6-6-6-3---3-2---|
|-3-1-0-1-0---0-1-|-3-1-0-1-0---0-1-|-3-1-0-1-0---0-1-|-4-4-4-1---1-0---|
  . . . . .   . .   . . . . .   . .   . . . . .   . .



 RIFF 1A VERSE x1

 RIFF 2 CHORUS x2


 RIFF 4 INTERLUDE x1

|x3                               |x1
|---------------------------------|---------------------------------|
|---------------------------------|---------------------------------|
|---------------------------------|---------------------------------|
|---------------------------------|---------------------------------|
|---------------------------------|---------------------------3-3-3-|
|-0-4-3-0-0-4-1-0-0-3-1-0-0-4-1-0-|-0-4-3-0-0-4-1-0-0-3-1-0-0-1-1-1-|
  . . . . . . . . . . . . . . . .   . . . . . . . . . . . . .



 RIFF 5 INTERLUDE x2

|---------------------------------|---------------------------------|
|---------------------------------|---------------------------------|
|---------------------------------|---------------------------------|
|---------------------------------|---------------------------------|
|-5-4-2-----2-4-5---2-4-8-7-7-7---|-5-4-2-----2-4-5---2-5-4-3-3-3---|
|-3-2-0-----0-2-3---0-2-6-5-5-5---|-3-2-0-----0-2-3---0-3-2-1-1-1---|
       x         x                       x         x



 RIFF 6 BREAK x1

|-------------------------------------------------------------------|
|-------------------------------------------------------------------|
|-------------------------------------------------------------------|
|-------------------------------------------------------------------|
|-----555-----555-----666-----665-----555-----555-----666-6-6-6-6-6-|
|-444-----444-----444-----444-----444-----444-----444-----4-4-4-4-4-|




 RIFF 5 INTERLUDE x2

 RIFF 6 BREAK x1

 RIFF 5 CHORUS x2

 RIFF 6 BREAK x1


 RIFF 6A BREAK x1

|---------------------------------------------------------|
|---------------------------------------------------------|
|---------------------------------------------------------|
|---------------------------------------------------------|
|-----555-----555-----666-----665-----555-----555-----666-|
|-444-----444-----444-----444-----444-----444-----444-----|


|----------------------------------|
|----------------------------------|
|----------------------------------|
|----------------------------------|
|-66666666666666666666666666666666-|
|-44444444444444444444444444444444-|




 RIFF 7 BRIDGE x2

|------------------|------------------|------------------|------------------
|------------------|------------------|------------------|------------------
|------------------|------------------|------------------|------------------
|------------------|------------------|------------------|------------------
|-5\\---2-2-----22-|-5\\---2-2-----22-|-5\\---2-2-----22-|-5\\----2-3-3-3-3-
|-5\\---0-0-----00-|-5\\---0-0-----00-|-5\\---0-0-----00-|-5\\----0-1-1-1-1-
|       . .     ..         . .     ..         . .     ..
|
|HANNEMAN
|------------------|------------------|------------------|------------------
|------------------|------------------|------------------|------------------
|------------------|------------------|------------------|------------------
|------------------|------------------|------------------|------------------
|-5\\--------------|------------------|------------------|--------2-3-3-3-3-
|-5\\--------------|------------------|------------------|--------0-1-1-1-1-





 SOLO 2 KING
  WAH_           WAH_           WAH & BAR       N.H. BAR
|---------------------------------------------------------------------|
|---------------------------------------------------------------------|
|-3/4b^^^^^^^^---3/4b^^^^^^^^-------------------6/\\\\////\/\/\/\\----|
|-------------------------------0\\\\\\\\/\/\\------------------------|
|---------------------------------------------------------------------|
|---------------------------------------------------------------------|

  WAH & BAR                    WAH & BAR/\/\/\/\/\/\/\/\/\/\/\/\/\
|------------------------------------------------------------------|
|------------------------------------------------------------------|
|-0\\\\////GRADUAL RELEASE////h4p3p0h4p3p0h4p3p0h4p3p0h4p3p0h4p3p0-|
|------------------------------------------------------------------|
|------------------------------------------------------------------|
|------------------------------------------------------------------|

  WAH & BAR                  N.H. BAR    WAH      N.H. BAR    WAH
|----------------------------22//\\\\----15b^^----22//\\\\----15b^^----|
|-3\\\\\\////\\\\////\/\\----22//\\\\----18b^^----22//\\\\----18b^^----|
|-0\\\\\\////\\\\////\/\\----------------------------------------------|
|----------------------------------------------------------------------|
|----------------------------------------------------------------------|
|----------------------------------------------------------------------|

  N.H. BAR    WAH      N.H. BAR
|-22//\\\\----15b^^----22//\\\\----18b-18b-18b-18b-18b-17b^^----|
|-22//\\\\----18b^^----22//\\\\----21b-21b-21b-21b-21b-20b^^----|
|---------------------------------------------------------------|
|---------------------------------------------------------------|
|---------------------------------------------------------------|
|---------------------------------------------------------------|


|-19h22p19h22p19h22p19-17b^^----------19h22p19h22p19-17b^^----------|
|----------------------20b^^-------------------------20b^^----------|
|-------------------------------------------------------------------|
|-------------------------------------------------------------------|
|-------------------------------------------------------------------|
|-------------------------------------------------------------------|


|-19h22p19h22p19-17b^--17b^--------20b-20b-20b-20b-20b^----|
|----------------20b^--20b^--------23b-23b-23b-23b-23b^----|
|----------------------------------------------------------|
|----------------------------------------------------------|
|----------------------------------------------------------|
|----------------------------------------------------------|
                                                       x



 RIFF 7A x2 UNDER SOLO 2

|------------------|------------------|------------------|------------------
|------------------|------------------|------------------|------------------
|------------------|------------------|------------------|------------------
|------------------|------------------|------------------|------------------
|-5\\---2-2-----22-|-5\\---2-2-----22-|-5\\---2-2-----22-|-5\\----2-3-3-3-3-
|-5\\---0-0-----00-|-5\\---0-0-----00-|-5\\---0-0-----00-|-5\\----0-1-1-1-1-
        . .     ..         . .     ..         . .     ..


 RIFF 7B x2 UNDER SOLO 2

|------------------|------------------|------------------|------------------
|------------------|------------------|------------------|------------------
|------------------|------------------|------------------|------------------
|------------------|------------------|------------------|------------------
|-5\\---2-1-----22-|-5\\---2-1-----22-|-5\\---2-1-----22-|-5\\----2-3-3-3-3-
|-5\\---0-0-----00-|-5\\---0-0-----00-|-5\\---0-0-----00-|-5\\----0-1-1-1-1
        .       ..         .       ..         .       ..


9. Scrum 

Tuning Eb


 RIFF 1 INTRO x1

|x3
|-------------------------------------------------|
|-------------------------------------------------|
|-------------------------------------------------|
|-------------------------------------------------|
|-------------------------------------------------|
|-0-0-0-0-0-0-0-0-0-0-0-0-0-0-0-0-0-0-0-0-0-0-0-0-|
  . . . . . . . . . . . . . . . . . . . . . . . .


|x1
|-------------------------------------------------|
|-------------------------------------------------|
|-------------------------------------------------|
|-------4-----3-----2-----------------------5-----|
|-2-----2-----1-----0-----4-----3-----2-----3-----|
|-0-----------------------2-----1-----0-----------|




 RIFF 1A INTRO x5

|-------------------------------------------------|
|-------------------------------------------------|
|-------------------------------------------------|
|-------------------------------------------------|
|-------2-2-2-1-1-1-0-0-0-------------------3-3-3-|
|-0-0-0-------------------2-2-2-1-1-1-0-0-0-------|
  . . . . . . . . . . . . . . . . . . . . . . . .



 SOLO 1 KING
  WAH & BAR       WAH & BAR  WAH & BAR/\/\/\ WAH & BAR
|-----------------------------------------------------------|
|-17b////\\/\/\\--------------------------------------------|
|-16b////\\/\/\\--0\\\\\\/\\h4p3p0h4p3p0h4p3p0\\////\/\/\\--|
|-----------------------------------------------------------|
|-----------------------------------------------------------|
|-----------------------------------------------------------|

  WAH & BAR  N.H. BAR
|--------------------------------|
|--------------------------------|
|------------3//\\////\\/\/\\----|
|--------------------------------|
|-0\\\\\\\\----------------------|
|--------------------------------|



 RIFF 1 x3 UNDER SOLO 1


 RIFF 2 INTRO x1

|KING x3 WITH FLANGER EFFECT
|-----------------------------------------|
|-----------------------------------------|
|-----------------------------------------|
|-11111111--9-11111111--9-11111111-12--9--|
|--9-9-9-9--7--9-9-9-9--7--9-9-9-9-10--7--|
|-----------------------------------------|
|
|
|HANNEMAN x3
|-----------------------------------------|
|-----------------------------------------|
|-----------------------------------------|
|-11111111--9-11111111--9-11111111-12--9--|
|--9-9-9-9--7--9-9-9-9--7--9-9-9-9-10--7--|
|-----------------------------------------|


|KING WITH FLANGER EFFECT
|-----------------------------------------|
|-----------------------------------------|
|-----------------------------------------|
|-11111111--9-11111111--9-----------------|
|--9-9-9-9--7--9-9-9-9--7--x\\\\\\\\\\\\--|
|-----------------------------------------|
|
|
|HANNEMAN
|-----------------------------------------|
|-----------------------------------------|
|-----------------------------------------|
|-11111111--9-11111111--9-11111111-12--9--|
|--9-9-9-9--7--9-9-9-9--7--9-9-9-9-10--7--|
|-----------------------------------------|




 RIFF 3 MAIN x1

|KING
|-----------------------------------------------------------------|
|-----------------------------------------------------------------|
|-----------------------------------------------------------------|
|--------------------------4----------------------5---------------|
|-5--------4---------------4------6p3-------------5-------6---3---|
|-33333333-4-33333-6-33333---3333-----3-3-4-33333---33333-4---1---|
| ........   ..... . .....   ....     . . . .....   .....
|
|HANNEMAN
|-----------------------------------------------------------------|
|-----------------------------------------------------------------|
|-----------------------------------------------------------------|
|-----------------------------------------------------------------|
|-5---------------------------------------------------------------|
|-3---------------------------------------------------------------|
   x




 RIFF 4 BREAK x1

|KING
|-----------------------------------------------------------------|
|-----------------------------------------------------------------|
|-----------------------------------------------------------------|
|-----------------------------4-----------------------------------|
|-------------4---6p3-----5-------6p3---------4---6p3-----6---3---|
|-3-3-3-3-6-3---3-----3-3---3---3-----3-3-6-3---3-----3-3-4---1---|
| . . . . . . . .     . . . .   .     . . . . . .     . .
|
|HANNEMAN
|-----------------------------------------------------------------|
|-----------------------------------------------------------------|
|-----------------------------------------------------------------|
|-----------------------------------------------------------------|
|-5-------------------------------------------------------6---3---|
|-3-------------------------------------------------------4---1---|
   x



 RIFF 5 VERSE x2

|-----------------------------------------------------------------|
|-----------------------------------------------------------------|
|-----------------------------------------------------------------|
|-----------------------------------------------------------------|
|-5-------------------------------------------------------6---3---|
|-3-------------------------------------------------------4---1---|
   x







 RIFF 6 BRIDGE x2

|-------------------------------------------------|
|-------------------------------------------------|
|-------------------------------------------------|
|-------------------------------------------------|
|-2-----2-----3-----3-----6-----6-----5-----5-----|
|-0-000-0-000-1-000-1-000-4-000-4-000-3-000-3-000-|
    ...   ...   ...   ...   ...   ...   ...   ...




 RIFF 7 CHORUS x1

|-------------------------------------------------|
|-------------------------------------------------|
|-------------------------------------------------|
|-------4-----3-----2-----------------------5-----|
|-2-----2-----1-----0-----4-----3-----2-----3-----|
|-0-000---000---000---000-2-000-1-000-0-000---000-|
    ...   ...   ...   ...   ...   ...   ...   ...



 RIFF 4 BREAK x1


 RIFF 3A VERSE x1

|-----------------------------------------------------------------|
|-----------------------------------------------------------------|
|---------------------------------------------------------4-------|
|--------------------------4----------------------5-------4-------|
|-5--------4-------6-------4------6p3-----4-------5---------------|
|-33333333-4-33333-6-33333---3333-----333-4-33333---33333---33333-|
  ........   .....   .....   ....     ...   .....   .....   .....


|-----------------------------------------------------------------|
|-----------------------------------------------------------------|
|-----------------------------------------------------------------|
|--------------------------4----------------------5---------------|
|-6p3------4-------6-------4------6p3-----4-------5-------6---3---|
|-----3333-4-33333-6-33333---3333-----333-4-33333---33333-4---1---|
      ....   .....   .....   ....     ...   .....   .....



 SOLO 2 KING

|-14-18-14-18-14-16-14-18-14-18-14-16-14-18-14-18-14-16-14-18-14-18-14-16-|
|-------------------------------------------------------------------------|
|-------------------------------------------------------------------------|
|-------------------------------------------------------------------------|
|-------------------------------------------------------------------------|
|-------------------------------------------------------------------------|


|-15-19-15-19-15-17-15-19-15-19-15-17-15-19-15-19-15-17-15-19-15-19-15-17-|
|-------------------------------------------------------------------------|
|-------------------------------------------------------------------------|
|-------------------------------------------------------------------------|
|-------------------------------------------------------------------------|
|-------------------------------------------------------------------------|

  WAH_______________________________________________________
|-15-18-17-15-----------------------------------------------------|
|-------------17-16-14--------------------------------------------|
|----------------------17-15-14-----------------------------------|
|-------------------------------16-14-13--------------------------|
|----------------------------------------15-13-12-----------------|
|-------------------------------------------------14-12-11\\\\----|

         BAR
|---------------------------21b^^^^^^^^----|
|------------------------20----------------|
|------------------------------------------|
|-////14b//\/\/\/\/\/\\--------------------|
|------------------------------------------|
|------------------------------------------|




 RIFF 8 x1 UNDER SOLO 2

|x3                    |x1
|----------------------|----------------------|
|----------------------|----------------------|
|----------------------|----------------------|
|----------------------|----------------------|
|-4----------------2---|-4------------5---7---|
|-222222222222-333-0---|-222222222222-3---5---|
  ............ ...       ............



 RIFF 9 INTERLUDE x1

|KING
|--------------------------------------------|
|--------------------------------------------|
|--------------------------------------------|
|-------------------------------------7--6^--|
|-------------8--7---------------------------|
|-0--7--6--0--------0--0--0--8--7-10---------|
| .        .        .  .  .
|
|HANNEMAN
|--------------------------------------------|
|--------------------------------------------|
|--------------------------------------------|
|-------------------------------------7--6^--|
|-------------8--7-----------6--5--8---------|
|-0--7--6--0--------0--0--0------------------|
  .        .        .  .  .


|KING
|--------------------------------------------|
|--------------------------------------------|
|--------------------------------------------|
|--------------------------------------------|
|-------------------------------------9--8^--|
|-0--7--6--0--8--7--0--0--0--8--7-10---------|
| .        .        .  .  .
|
|HANNEMAN
|--------------------------------------------|
|--------------------------------------------|
|--------------------------------------------|
|-------------------------------------7--6^--|
|-------------8--7-----------6--5--8---------|
|-0--7--6--0--------0--0--0------------------|
  .        .        .  .  .


|KING
|--------------------------------------------|
|--------------------------------------------|
|--------------------------------------------|
|--------------------------------------------|
|-------------3--2--------------------9--8^--|
|-0--2--1--0--------0--0--0--8--7-10---------|
| .        .        .  .  .
|
|HANNEMAN
|--------------------------------------------|
|--------------------------------------------|
|--------------------------------------------|
|-------------------------------------7--6^--|
|-------------8--7-----------6--5--8---------|
|-0--7--6--0--------0--0--0------------------|
  .        .        .  .  .



|KING
|--------------------------------------------|
|--------------------------------------------|
|--------------------------------------------|
|-------------------------------------7--6^--|
|-------------3--2---------------------------|
|-0--2--1--0--------0--0--0--8--7-10---------|
| .        .        .  .  .
|
|HANNEMAN
|--------------------------------------------|
|--------------------------------------------|
|--------------------------------------------|
|-------------------------------------7--6^--|
|-------------8--7-----------6--5--8---------|
|-0--7--6--0--------0--0--0------------------|
  .        .        .  .  .




 RIFF 9A BREAK x1

|KING
|---------------------------|---------------------------|
|---------------------4-3^--|---------------------5-4^--|
|---------4-3-------4-------|---------5-4-------5-------|
|---3-2---------3-2---------|---3-2---------3-2---------|
|---------------------------|---------------------------|
|-0-----0-----0-------------|-0-----0-----0-------------|
| .     .     .               .     .     .
|
|HANNEMAN
|---------------------------|---------------------------|
|---------------------------|---------------------------|
|---------------------4-3^--|---------------------5-4^--|
|---3-2---5-4---3-2-5-------|---3-2---6-5---3-2-6-------|
|---------------------------|---------------------------|
|-0-----0-----0-------------|-0-----0-----0-------------|
  .     .     .               .     .     .



 RIFF 6 BRIDGE x2

 RIFF 7 CHORUS x1


 FILL 1 END

|-----|
|-----|
|-----|
|-----|
|-2---|
|-0---|
   x

10. Screaming From The Sky
Tuning Db


 RIFF 1 INTRO x2

|---------------------------------|---------------------------------|
|---------------------------------|---------------------------------|
|---------------------------------|---------------------------------|
|---------------------------------|---------------------------------|
|-2-------3-------2-------5-4-5---|-2-------3-------2---1-----------|
|-0---0-0-1---0-0-0---0-0-3-2-3---|-0---0-0-1---0-0-0---1---3-1-4-3-|
      . .     . .     . . . .           . .     . .         . . . .


|---------------------------------|---------------------------------|
|---------------------------------|---------------------------------|
|---------------------------------|---------------------------------|
|---------------------------------|---------------------------------|
|-2-------3-------2-------5-4-1---|-2-------3-------2-------3-2-1b^-|
|-0---0-0-1---0-0-0---0-0-3-2-1---|-0---0-0-1---0-0-0---0-0---------|
      . .     . .     . . . .           . .     . .     . .



 RIFF 2 INTRO x1

|KING
|---------------------------------|---------------------------------|
|---------------------------------|---------------------------------|
|---------------------------------|---------------------------------|
|---------------------------------|---------------------------------|
|---------------------------------|---------------------------------|
|-4-3-0-1-4-3-0-1-4-3-0-1-4-3-0-1-|-4-3-0-1-4-3-0-1-4-3-0-1-4-3-0-1-|
| . . . . . . . . . . . . . . . .   . . . . . . . . . . . . . . . .
|
|HANNEMAN
|---------------------------------|---------------------------------|
|---------------------------------|---------------------------------|
|---------------------------------|---------------------------------|
|-------------------------2-------|-2---------------2-------2-------|
|-2-------3-------2-------2-------|-1---------------2-------2-------|
|-0---0-0-1---0-0-0---0-0-----0-0-|---------------------0-0-----0-0-|
      . .     . .     . .     . .                    x  . .     . .


|KING
|---------------------------------|---------------------------------|
|---------------------------------|---------------------------------|
|---------------------------------|---------------------------------|
|---------------------------------|---------------------------------|
|---------------------------------|---------------------------------|
|-4-3-0-1-4-3-0-1-4-3-0-1-4-3-0-1-|-4-3-0-1-4-3-0-1-4-3-0-1-4-3-0-1-|
| . . . . . . . . . . . . . . . .   . . . . . . . . . . . . . . . .
|
|HANNEMAN
|---------------------------------|---------------------------------|
|---------------------------------|---------------------------------|
|---------------------------------|---------------------------------|
|-2---------------2-------2-------|-2---------------2-----------2---|
|-1---------------2-------2-------|-1---------------2-----------2---|
|---------------------0-0-----0-0-|---------------------0-0-4-3-----|
                   x  . .     . .                    x  . . . .  x



 RIFF 2A BREAK x1

|---------------------------------|
|---------------------------------|
|---------------------------------|
|---------------------------------|
|---------------------------------|
|-4-3-0-1-4-3-0-1-4-3-0-1-4-3-0-1-|
  . . . . . . . . . . . . . . . .



 FILL 1

|KING
|---------------------------------|---------------------------------|
|---------------------------------|---------------------------------|
|---------------------------------|---------------------------------|
|---------------------------------|---------------------------------|
|-2-------------------------------|---------------------------------|
|-0-------------------------------|---------------------------------|
|
|
|HANNEMAN
|---------------------------------|---------------------------------|
|---------------------------------|---------------------------------|
|---------------------------------|---------------------------------|
|---------6^^^^---5^^^^-----------|---------------------------------|
|-2-----------------------6^^^^---|-5^^^^---4^^^^---8^^^^---7^^^^---|
|-0-------------------------------|---------------------------------|



 FILL 2 OVER VERSE

|HANNEMAN
|---------------------------------|
|---------------------------------|
|---------------------------------|
|-9b^^^^^^^^^^^^^^^^--------------|
|---------------------------------|
|---------------------------------|




 RIFF 1 VERSE x2

 RIFF 2&1 CHORUS x1

|---------------------------------|---------------------------------|
|---------------------------------|---------------------------------|
|---------------------------------|---------------------------------|
|---------------------------------|---------------------------------|
|---------------------------------|-2-------3-------2-------5-4-5---|
|-4-3-0-1-4-3-0-1-4-3-0-1-4-3-0-1-|-0---0-0-1---0-0-0---0-0-3-2-3---|
  . . . . . . . . . . . . . . . .       . .     . .     . . . .


|---------------------------------|---------------------------------|
|---------------------------------|---------------------------------|
|---------------------------------|---------------------------------|
|---------------------------------|---------------------------------|
|---------------------------------|-2-------3-------2-------5-4-1---|
|-4-3-0-1-4-3-0-1-4-3-0-1-4-3-0-1-|-0---0-0-1---0-0-0---0-0-3-2-1---|
  . . . . . . . . . . . . . . . .       . .     . .     . . . .


|---------------------------------|
|---------------------------------|
|---------------------------------|
|---------------------------------|
|---------------------------------|
|-4-3-0-1-4-3-0-1-4-3-0-1-4-3-0-1-|
  . . . . . . . . . . . . . . . .



 FILL 1

 FILL 2 OVER VERSE

 RIFF 1 VERSE x2

 RIFF 2&1 CHORUS x1


 FILL 3

|KING                               WAH____________________________
|---------------------------------|---------------------------------|
|---------------------------------|---------------------------------|
|---------------------------------|-4444444444444444444444444444444-|
|---------------------------------|---------------------------------|
|-2-------------------------------|---------------------------------|
|-0-------------------------------|---------------------------------|
|
|
|HANNEMAN
|---------------------------------|---------------------------------|
|---------------------------------|---------------------------------|
|---------------------------------|---------------------------------|
|---------------------------------|---------------------------------|
|-2-------------------------------|---------------------------------|
|-0-------------------------------|---------------------------------|


|KING
| WAH____________________________   WAH____________________________
|---------------------------------|---------------------------------|
|---------------------------------|---------------------------------|
|-4444444444444444444444444444444-|-444444444444444444444444//21\\3-|
|---------------------------------|---------------------------------|
|---------------------------------|---------------------------------|
|---------------------------------|---------------------------------|
|
|
|HANNEMAN
|---------------------------------|---------------------------------|
|---------------------------------|---------------------------------|
|---------------------------------|---------------------------------|
|---------------------------------|---------------------------------|
|-2-------------------------------|---------------------------------|
|-0-------------------------------|---------------------------------|




 SOLO KING
  WAH__________________________________________________________________
|-3-4-6-4-3-------3-4-6-4-3-------3-4-6-4-3-------3-4-6-4-3-------------|
|-----------6-5-6-----------6-5-6-----------6-5-6-----------6-5-3-6-5-3-|
|-----------------------------------------------------------------------|
|-----------------------------------------------------------------------|
|-----------------------------------------------------------------------|
|-----------------------------------------------------------------------|

  WAH________________________________________________________
|--------------------------------------------------------------------|
|-------------------------------------------------999-888/12b^^^^----|
|-6-4-3-6-4-3--------------------------------------------------------|
|-------------5-3-2-5-3-2-666-555---------999-888--------------------|
|---------------------------------777-888----------------------------|
|--------------------------------------------------------------------|

  WAH__________________________________________________________
|-4-6-7-4-6-7-6-4-------------4-6-7-4-6-7-6-4--------------------------|
|-----------------6-5-3-6-5-3-----------------6-5-3-6-5-3-5/12b^^^^----|
|----------------------------------------------------------------------|
|----------------------------------------------------------------------|
|----------------------------------------------------------------------|
|----------------------------------------------------------------------|




 RIFF 2A x4 UNDER SOLO


 RIFF 3 INTERLUDE x1

|KING
|---------------------------------|---------------------------------|
|---------------------------------|---------------------------------|
|---------------------------------|---------------------------------|
|---------------------------------|---------------------------------|
|-3-------2-----------------------|-3-------1-----------------------|
|-3-------2-------4-3-0-1-4-3-0-1-|-3-------1-------4-3-0-1-4-3-0-1-|
|                 . . . . . . . .                   . . . . . . . .
|
|HANNEMAN
|---------------------------------|---------------------------------|
|---------------------------------|---------------------------------|
|---------------------------------|---------------------------------|
|-5-------4-----------------------|-5-------3-----------------------|
|-3-------2-----------------------|-3-------1-----------------------|
|-----------------4-3-0-1-4-3-0-1-|-----------------4-3-0-1-4-3-0-1-|
                  . . . . . . . .                   . . . . . . . .


|KING
|---------------------------------|
|---------------------------------|
|---------------------------------|
|---------------------------------|
|-3-------2-----------------------|
|-3-------2-------4-3-0-1-4-3-0-1-|
|                 . . . . . . . .
|
|HANNEMAN
|---------------------------------|
|---------------------------------|
|---------------------------------|
|-5-------4-----------------------|
|-3-------2-----------------------|
|-----------------4-3-0-1-4-3-0-1-|
                  . . . . . . . .



 RIFF 4 INTERLUDE x2

|KING
|-----------------------------------------------------|
|-----------------------------------------------------|
|-----------------------------------------------------|
|------3-----4-----5-----4-----3----------------------|
|-3-----------------------------------3-----5-6-8-8-8-|
|-3-----------------------------------------3-4-6-6-6-|
|
|
|HANNEMAN
|-----------------------------------------------------|
|-----------------------------------------------------|
|-----------------------------------------------------|
|-----------------------------------------------------|
|-3-----3-----4-----5-----4-----3-----3-----5-6-8-8-8-|
|-3-3-3-1-1-1-2-2-2-3-3-3-2-2-2-1-1-1-3-3-3-3-4-6-6-6-|
    . .   . .   . .   . .   . .   . .   . .


|KING
|-----------------------------------------------------|
|-----------------------------------------------------|
|-----------------------------------------------------|
|------3-----5-----4-----3----------------------------|
|-3----------------------------4------3---------3-----|
|-3-----------------------------------------3-4---5-4-|
|                                           . . . . .
|
|HANNEMAN
|-----------------------------------------------------|
|-----------------------------------------------------|
|-----------------------------------------------------|
|-----------------------------------------------------|
|-3-----3-----5-----4-----3-----4-----3---------3-----|
|-3-3-3-1-1-1-3-3-3-2-2-2-1-1-1-4-4-4-3-3-3-3-4---5-4-|
    . .   . .   . .   . .   . .   . .   . . . . . . .



 FILL 4

|---------|
|---------|
|---------|
|---------|
|---------|
|-4-3-0-1-|
  . . . .



 FILL 1


 FILL1A

|KING
|-------------------------|---------------------------------|
|-------------------------|---------------------------------|
|-------------------------|---------------------------------|
|-------------------------|---------------------------------|
|-------------------------|---------------------------------|
|-0-0-0-0-0-0-0-0-0-0-0-0-|-0-0-0-0-0-0-0-0-0-0-0-0-0-0-0-0-|
| . . . . . . . . . . . .   . . . . . . . . . . . . . . . .
|
|HANNEMAN
|-------------------------|---------------------------------|
|-------------------------|---------------------------------|
|-------------------------|---------------------------------|
|-6^^^^---5^^^^-----------|---------------------------------|
|-----------------6^^^^---|-5^^^^---4^^^^---------//7^^^^---|
|-------------------------|-----------------1^^^^-----------|




 FILL 2 OVER BRIDGE


 RIFF 1A BRIDGE x1

|---------------------------------|---------------------------------|
|---------------------------------|---------------------------------|
|---------------------------------|---------------------------------|
|---------------------------------|---------------------------------|
|-2-------3-------2-------5-4-5---|-2-------3-------2-------5-4-1---|
|-0---0-0-1---0-0-0---0-0-3-2-3---|-0---0-0-1---0-0-0---0-0-3-2-1---|
      . .     . .     . . . .           . .     . .     . . . .



 RIFF 2A OUTRO VERSE x1

|KING
|---------------------------------|---------------------------------|
|---------------------------------|---------------------------------|
|---------------------------------|---------------------------------|
|---------------------------------|---------------------------------|
|---------------------------------|---------------------------------|
|-4-3-0-1-4-3-0-1-4-3-0-1-4-3-0-1-|-4-3-0-1-4-3-0-1-4-3-0-1-4-3-0-1-|
| . . . . . . . . . . . . . . . .   . . . . . . . . . . . . . . . .
|
|HANNEMAN
|---------------------------------|---------------------------------|
|---------------------------------|---------------------------------|
|---------------------------------|---------------------------------|
|-------------------------2-------|-2---------------2-------2-------|
|-2-------3-------2-------2-------|-1---------------2-------2-------|
|-0---0-0-1---0-0-0---0-0-----0-0-|---------------------0-0-----0-0-|
      . .     . .     . .     . .                    x  . .     . .


|KING
|---------------------------------|---------------------------------|
|---------------------------------|---------------------------------|
|---------------------------------|---------------------------------|
|---------------------------------|---------------------------------|
|---------------------------------|---------------------------------|
|-4-3-0-1-4-3-0-1-4-3-0-1-4-3-0-1-|-4-3-0-1-4-3-0-1-4-3-0-1-4-3-0-1-|
| . . . . . . . . . . . . . . . .   . . . . . . . . . . . . . . . .
|
|HANNEMAN
|---------------------------------|---------------------------------|
|---------------------------------|---------------------------------|
|---------------------------------|---------------------------------|
|-2---------------2-------2-------|-2---------------2-------2-------|
|-1---------------2-------2-------|-1---------------2-------2-------|
|---------------------0-0-----0-0-|---------------------0-0-----0-0-|
                   x  . .     . .                    x  . .     . .


|KING
|---------------------------------|---------------------------------|
|---------------------------------|---------------------------------|
|---------------------------------|---------------------------------|
|---------------------------------|---------------------------------|
|---------------------------------|-----------------------------2---|
|-4-3-0-1-4-3-0-1-4-3-0-1-4-3-0-1-|-4-3-0-1-4-3-0-1-4-3-0-1-4-3-0---|
| . . . . . . . . . . . . . . . .   . . . . . . . . . . . . . .  x
|
|HANNEMAN
|---------------------------------|---------------------------------|
|---------------------------------|---------------------------------|
|---------------------------------|---------------------------------|
|-2---------------2-------2-------|-2---------------2---------------|
|-1---------------2-------2-------|-1---------------2-----------2---|
|---------------------0-0-----0-0-|---------------------0-0-4-3-0---|
                   x  . .     . .                    x  . . . .  x

11. Point

Tuning Db


 FILL 1

|-------|
|-------|
|-------|
|-------|
|-3-3---|
|-1-1---|
  . .x



 RIFF 1 INTRO x1

|x3
|-------------------------------------------------------------|
|-------------------------------------------------------------|
|-------------------------------------------------------------|
|-------------------------------------------------------------|
|-------------------------------------------------------------|
|-0-0-0-0-0-0-1-1-1-1-4-4-4-4-3-3-3-3-3-3-3-3-2-2-2-2-2-2-2-2-|
  . . . . . . . . . . . . . . . . . . . . . . . . . . . . . .


|KING x1
|-------------------------------------------------------------|
|-------------------------------------------------------------|
|-------------------------------------------------------------|
|-------------------------------------------------------------|
|-----------------------------------------------3-2---6-5-----|
|-0-0-0-0-0-0-1-1-1-1-4-4-4-4-3-3-3-3-3-3-3-3-2-----3-----6-5-|
| . . . . . . . . . . . . . . . . . . . . . . .
|
|HANNEMAN x1
|-------------------------------------------------------------|
|-------------------------------------------------------------|
|-------------------------------------------------------------|
|-----------------------------------------------3-2---6-5-----|
|---------------------------------------------2-----3-----6-5-|
|-0-0-0-0-0-0-1-1-1-1-4-4-4-4-3-3-3-3-3-3-3-3-----------------|
  . . . . . . . . . . . . . . . . . . . . . . .



 RIFF 1A INTRO x1

|KING WITH WAH x3
|-------------------------------------------------------------|
|-------------------------------------------------------------|
|-------------------------------------------------------------|
|-------------------------------------------------------------|
|-77777777777-8888888111111111010101010101010-999999999999999-|
|-------------------------------------------------------------|
|
|
|HANNEMAN x3
|-------------------------------------------------------------|
|-------------------------------------------------------------|
|-------------------------------------------------------------|
|-------------------------------------------------------------|
|-2-2-2-2-2-2-3-3-3-3-6-6-6-6-5-5-5-5-5-5-5-5-4-4-4-4-4-4-4-4-|
|-0-0-0-0-0-0-1-1-1-1-4-4-4-4-3-3-3-3-3-3-3-3-2-2-2-2-2-2-2-2-|



|KING WITH WAH x3
|-------------------------------------------------------------|
|-------------------------------------------------------------|
|-------------------------------------------------------------|
|-------------------------------------------------------------|
|-77777777777-8888888111111111010101010101010---3-2---2-1-----|
|---------------------------------------------2-----3-----3-2-|
|
|
|HANNEMAN x3
|-------------------------------------------------------------|
|-------------------------------------------------------------|
|-------------------------------------------------------------|
|-------------------------------------------------------------|
|-2-2-2-2-2-2-3-3-3-3-6-6-6-6-5-5-5-5-5-5-5-5---8-7---7-6-----|
|-0-0-0-0-0-0-1-1-1-1-4-4-4-4-3-3-3-3-3-3-3-3-7-----8-----8-7-|




 RIFF 2 INTRO x1

|KING
|---------------------------------|---------------------------------|
|---------------------------------|---------------------------------|
|---------------------------------|---------------------------------|
|---------------------------------|---------------------------------|
|-2-----------------------2-3-----|-------------------------2-5-3---|
|-0-----------------------0-1-----|-------------------------0-3-1---|
|  x
|
|HANNEMAN
|---------------------------------|---------------------------------|
|---------------------------------|---------------------------------|
|---------------------------------|---------------------------------|
|-9-------7-------6---------------|-9-------7-------6---------------|
|-7-------7-------6-------2-3-----|-7-------7-------6-------2-5-3---|
|-----0-0-----0-0-----0-0-0-1-----|-----0-0-----0-0-----0-0-0-3-1---|
      . .     . .     . .               . .     . .     . .


|KING
|---------------------------------|---------------------------------|
|---------------------------------|---------------------------------|
|---------------------------------|---------------------------------|
|---------------------------------|---------------------------------|
|-------------------------2-3-----|-----------------6---5---3-------|
|-------------------------0-1-----|-----------------4---3---1-------|
|
|
|HANNEMAN
|---------------------------------|---------------------------------|
|---------------------------------|---------------------------------|
|---------9-----------------------|---------------------------------|
|-9-------9-------6---------------|-9-------6-----------------------|
|-7---------------6-------2-3-----|-7-------6-------6---5---3-------|
|-----0-0-----0-0-----0-0-0-1-----|-----0-0-----0-0-4---3---1-------|
      . .     . .     . .               . .     . .


|BOTH
|---------------------------------|---------------------------------|
|---------------------------------|---------------------------------|
|---------9-------8---------------|---------9-------8---------------|
|-9-------9-------8---------------|-9-------9-------8---------------|
|-7-----------------------2-3-----|-7-----------------------2-5-3---|
|-----0-0-----0-0-----0-0-0-1-----|-----0-0-----0-0-----0-0-0-3-1---|
      . .     . .     . .               . .     . .     . .


|BOTH
|---------------------------------|---------------------------------|
|---------------------------------|---------------------------------|
|-----------------8---------------|---------8-----------------------|
|-9-------7-------8---------------|-9-------8-----------------------|
|-7-------7---------------2-3-----|-7---------------8-----------5-3-|
|-----0-0-----0-0-----0-0-0-1-----|-----0-0-----0-0-6-----------3-1-|
      . .     . .     . .               . .     . .



 RIFF 3A BREAK x1

|KING
|-------------------------------------|-------------------------------------|
|-------------------------------------|-------------------------------------|
|-------------------------------------|-------------------------------------|
|-------------------------------------|-------------------------------------|
|-2-----------------------------------|---------------------------15\\\\\\\-|
|-0-----------------------------------|---------------------------15\\\\\\\-|
|  x
|
|HANNEMAN
|-------------------------------------|-------------------------------------|
|-------------------------------------|-------------------------------------|
|-------------------------------------|-------------------------------------|
|-------------------------------------|-------------------------------------|
|-2--------3--------4--------5--------|-2--------3--------4--------5--------|
|-0-000000-1-000000-2-000000-3-000000-|-0-000000-1-000000-2-000000-3-000000-|
    ......   ......   ......   ......     ......   ......   ......   ......


|BOTH
|-------------------------------------|-------------------------------------|
|-------------------------------------|-------------------------------------|
|-------------------------------------|-------------------------------------|
|-------------------------------------|-------------------------------------|
|-2--------3--------4--------5--------|-2--------3--------6-----------------|
|-0-000000-1-000000-2-000000-3-000000-|-0-000000-1-000000-4-----------------|
    ......   ......   ......   ......     ......   ......



 FILL 2

|-----------------|
|-----------------|
|-----------------|
|-----------------|
|-----------5-----|
|-0-1-2-3-4-3-----|
  . . . . .



 SOLO 1 KING
  WAH & BAR      WAH & BAR      WAH & BAR          WAH____     WAH_______
|------------------------------------------------------16b\\-------19--------|
|-23b///\/\/\\---23b///\/\/\\---23b////\//\/\\----//15--------//18----18b\\--|
|-22b///\/\/\\---22b///\/\/\\---24b////\//\/\\-------------------------------|
|----------------------------------------------------------------------------|
|----------------------------------------------------------------------------|
|----------------------------------------------------------------------------|

   WAH_______      WAH & BAR
|------21----------/22//\/\/\/\/\/\\----|
|-//20----20b\\-------------------------|
|---------------------------------------|
|---------------------------------------|
|---------------------------------------|
|---------------------------------------|




 RIFF 3B x1 UNDER SOLO 1

|-------------------------------------------------------------------------|
|-------------------------------------------------------------------------|
|-------------------------------------------------------------------------|
|-------------------------------------------------------------------------|
|-2-----------------3-----------------4-----------------5-----------------|
|-0-000000000000000-1-000000000000000-2-000000000000000-3-000000000000000-|
    ...............   ...............   ...............   ...............


|-------------------------------------------------------------------------|
|-------------------------------------------------------------------------|
|-------------------------------------------------------------------------|
|-------------------------------------------------------------------------|
|-2-----------------3-----------------4-----------------6-----------5---3-|
|-0-000000000000000-1-000000000000000-2-000000000000000-4-----------3---1-|
    ...............   ...............   ...............




 RIFF 3 CHORUS x1

|-------------------------------------|-------------------------------------|
|-------------------------------------|-------------------------------------|
|-------------------------------------|-------------------------------------|
|-------------------------------------|-------------------------------------|
|-2--------3--------4--------5--------|-2--------3--------4--------5--------|
|-0-000000-1-000000-2-000000-3-000000-|-0-000000-1-000000-2-000000-3-000000-|
    ......   ......   ......   ......     ......   ......   ......   ......


|-------------------------------------|-------------------------------------|
|-------------------------------------|-------------------------------------|
|-------------------------------------|-------------------------------------|
|-------------------------------------|-------------------------------------|
|-2--------3--------4--------5--------|-2--------3--------6-----------5---3-|
|-0-000000-1-000000-2-000000-3-000000-|-0-000000-1-000000-4-----------3---1-|
    ......   ......   ......   ......     ......   ......



 RIFF 4 BRIDGE x1

|------------------------------|------------------------------|
|------------------------------|------------------------------|
|------------------------------|------------------------------|
|--------------------------3---|------------------------------|
|--------------------------1---|--------------------------3---|
|-000000-333333-200000-2-0-----|-000000-333333-200000-2-0-1---|
  ...... ...... ...... . .       ...... ...... ...... . .


|------------------------------|------------------------------|
|------------------------------|------------------------------|
|------------------------------|------------------------------|
|--------------------------3---|------------------------------|
|--------------------------1---|--------------------------3---|
|-000000-333333-200000-2-0-----|-000000-333333-200000-2-0-1---|
  ...... ...... ...... . .       ...... ...... ...... . .



 RIFF 3 CHORUS x1


 RIFF 4A BRIDGE x1

|------------------------------|------------------------------|
|------------------------------|------------------------------|
|------------------------------|------------------------------|
|--------------------------3---|------------------------------|
|--------------------------1---|--------------------------3---|
|-000000-333333-200000-2-0-----|-000000-333333-200000-2-0-1---|
  ...... ...... ...... . .       ...... ...... ...... . .


|------------------------------|------------------------------|
|------------------------------|------------------------------|
|------------------------------|------------------------------|
|--------------------------3---|------------------------------|
|--------------------------1---|---------------4-----8-7------|
|-000000-333333-200000-2-0-----|-000000-333333-2-----6-5------|
  ...... ...... ...... . .       ...... ......          x



 RIFF 5 BREAK x1

|KING x3
|---------------------------------|
|---------------------------------|
|---------------------------------|
|-----------------------------3---|
|-----------------------------1---|
|---------------------------------|
|
|
|HANNEMAN x3
|---------------------------------|
|---------------------------------|
|---------------------------------|
|-----------------------------3---|
|-----------------------------1---|
|-3-2-0-3-2-0-6-5-0-5-4-0-1-0-----|
  . . . . . . . . . . . . . .


|KING
|--------------------------|
|--------------------------|
|--------------------------|
|-----3--------------------|
|-----1------3-2---6-5-----|
|-0-0-----0------3-----6-5-|
| . .     .
|
|HANNEMAN
|--------------------------|
|--------------------------|
|--------------------------|
|-----3------3-2---6-5-----|
|-----1----------3-----6-5-|
|-0-0-----0----------------|
  . .     .



 RIFF 6 INTERLUDE x4

|-----------------------------------------------------------------|
|-----------------------------------------------------------------|
|-----------------------------------------------------------------|
|-----------------------------------------------------------------|
|-----------------5\4-5/7-8\7-------------4/5-------------5-3-----|
|-0-0-0-0-0-0-0-0-3\2-3/5-6\5-0-0-0-0-0-0-2/3-0-0-0-0-0-0-3-1-----|
  . . . . . . . .             . . . . . .     . . . . . .



 RIFF 5A BREAK x1

|BOTH x3
|---------------------------------|
|---------------------------------|
|---------------------------------|
|-----------------------------3---|
|-----------------------------1---|
|-3-2-0-3-2-0-6-5-0-5-4-0-1-0-----|
  . . . . . . . . . . . . . .


|KING
|--------------------------|
|--------------------------|
|--------------------------|
|-----3--------------------|
|-----1------3-2---6-5-----|
|-0-0-----0------3-----6-5-|
| . .     .
|
|HANNEMAN
|--------------------------|
|--------------------------|
|--------------------------|
|-----3------3-2---6-5-----|
|-----1----------3-----6-5-|
|-0-0-----0----------------|
  . .     .



 RIFF 6 INTERLUDE x4

 RIFF 5A BREAK x1


 SOLO 2 HANNEMAN
  WAH______________________________________________________________________
|---------------------------------------------------------------------------
|---------------------------------------------------------------------------
|---------------------------------------------------------------------------
|---------------------------------------------12-11-9---------11-9-8--------
|-77777777777-8888888111111111010101010101010---------11-10-8--------10-8-7-
|---------------------------------------------------------------------------

  WAH___________________________        WAH & BAR
|------------------------------------------------------------|
|------------------------------------------------/17b^^^^----|
|--------------------1313131312b^^^^----0\\\\----------------|
|-9999999999910101010----------------------------------------|
|------------------------------------------------------------|
|------------------------------------------------------------|

  WAH_        WAH    WAH      WAH_________________________________________
|-----------------------------------15-16-18-16-15----------15-16-18-16-15-|
|-18fb^^^^r---18b^^--18b^^----17-18----------------18-17-18----------------|
|--------------------------------------------------------------------------|
|--------------------------------------------------------------------------|
|--------------------------------------------------------------------------|
|--------------------------------------------------------------------------|

  WAH_______________________________         WAH_____________________________
|----------15-16-18-16-15------------------|-12-13-15-13-12-----------------
|-18-17-18----------------18-17-18fb^^r----|----------------15-14-12-151412-
|------------------------------------------|-------------------------------
|------------------------------------------|--------------------------------
|------------------------------------------|--------------------------------
|------------------------------------------|--------------------------------

  WAH______________________________________________________________
|-------------------------------------------------------------------|
|-------------------------------------------------------------------|
|-15-13-12-13-15-13-12----------------------------------------------|
|----------------------14-12-11-14-12-11----------------------------|
|----------------------------------------13-11-10-------------------|
|-------------------------------------------------12-13-15-12-13-15-|

  WAH__________________________        WAH____
|----------------------------------------------------|
|----------------------------------------------------|
|--------------------------------------15//19\\\\----|
|-------------------14-15-17-14-17b^^----------------|
|-13-14-16-13-14-16----------------------------------|
|----------------------------------------------------|




 RIFF 1B UNDER SOLO 2

|x3
|-------------------------------------------------------------|
|-------------------------------------------------------------|
|-------------------------------------------------------------|
|-------------------------------------------------------------|
|-2-2-2-2-2-2-3-3-3-3-6-6-6-6-5-5-5-5-5-5-5-5-4-4-4-4-4-4-4-4-|
|-0-0-0-0-0-0-1-1-1-1-4-4-4-4-3-3-3-3-3-3-3-3-2-2-2-2-2-2-2-2-|


|x1
|-------------------------------------------------------------|
|-------------------------------------------------------------|
|-------------------------------------------------------------|
|-------------------------------------------------------------|
|-2-2-2-2-2-2-3-3-3-3-6-6-6-6-5-5-5-5-5-5-5-5---3-2---2-1-----|
|-0-0-0-0-0-0-1-1-1-1-4-4-4-4-3-3-3-3-3-3-3-3-2-----3-----3-2-|




 RIFF 5B BREAK x1

|BOTH x4
|---------------------------------|
|---------------------------------|
|---------------------------------|
|-----------------------------3---|
|-----------------------------1---|
|-3-2-0-3-2-0-6-5-0-5-4-0-1-0-----|
  . . . . . . . . . . . . . .


|KING
|--------------------------|--------------------------|
|--------------------------|--------------------------|
|--------------------------|--------------------------|
|-----3--------------------|-----3-------3------------|
|-----1------3-2---6-5-----|-----1-------1------------|
|-0-0-----0------3-----6-5-|-0-0-----0-0--------------|
| . .     .                  . .     . .  x
|
|HANNEMAN
|--------------------------|--------------------------|
|--------------------------|--------------------------|
|--------------------------|--------------------------|
|-----3------3-2---6-5-----|-----3-------3------------|
|-----1----------3-----6-5-|-----1-------1------------|
|-0-0-----0----------------|-0-0-----0-0--------------|
  . .     .                  . .     . .  x



 SOLO 3 KING
  S.H. WAH & BAR WAH & BAR/\/\/\/\/\/\/\ N.H. BAR        WAH & BAR/\
|--------------------------------------------------------------------|
|--------------------------------------------------------------------|
|-3\\\\\\\\\\\\--3p2p0h3p2p0h3p2p0h3p2p0-3///\\\\\\\\----3p2p0h3p2p0-|
|--------------------------------------------------------------------|
|--------------------------------------------------------------------|
|--------------------------------------------------------------------|

  WAH & BAR/\   WAH & BAR/\ WAH & BAR/\ WAH & BAR/\       WAH & BAR
|--------------------------------------------------------------------------|
|--------------------------------------------------------------------------|
|-5p3p0h5p3p0-6-3h5h6p3h5h6-5h6h8p5h6h8-6h8h9p6h8h9////18p0////\\\\\\\\----|
|--------------------------------------------------------------------------|
|--------------------------------------------------------------------------|
|--------------------------------------------------------------------------|

  WAH____________________________________________________________________
|-------------------------------------------------------------------------|
|-------------------------------------------------------------------------|
|-------------------------------------------------------14-15-17-14-15-17-|
|-------------------------------------13-14-16-13-14-16-------------------|
|-------------------12-13-15-12-13-15-------------------------------------|
|-11-12-14-11-12-14-------------------------------------------------------|

  WAH________________________________________________________ WAH & BAR
|-------------------14-15-17-15-14-----------------------------------------|
|-14-16-17-14-16-17----------------17-16-14-17-16-14-----------------------|
|----------------------------------------------------17-15-14-0\\\\\\\\----|
|--------------------------------------------------------------------------|
|--------------------------------------------------------------------------|
|--------------------------------------------------------------------------|

  WAH    WAH    WAH_________________ WAH    WAH_____________________________
|-14b^^--14b^^--14-15-17-15-14-------14b^^--14-15-17-15-14------------------
|-17b^^--17b^^-----------------17-16-17b^^-----------------17-16-14-17-1614-
|---------------------------------------------------------------------------
|---------------------------------------------------------------------------
|---------------------------------------------------------------------------
|---------------------------------------------------------------------------

  WAH_______ BAR S.H. BAR
|---------------------------------|
|---------------------------------|
|-17-15-14-0\\\\h3\\\\\\\\\\\\----|
|---------------------------------|
|---------------------------------|
|---------------------------------|




 RIFF 7 x1 UNDER SOLO 3

|x3
|------------------------------------------|
|------------------------------------------|
|------------------------------------------|
|------------------------------------------|
|------------------------------------------|
|-333333333333333000666666666222222222-0-2-|
  .................................... . .


|x1
|------------------------------------------|
|------------------------------------------|
|------------------------------------------|
|------------------------------------------|
|------------------------------------------|
|-333333333333333000666666666222222222-3-1-|
  .................................... . .



 RIFF 8 VERSE x1

|BOTH x2
|--------------------------|
|--------------------------|
|--------------------------|
|--------------------------|
|-2-----5-----4-----3------|
|-000000333333222222111111-|
  ........................


|KING x2
|--------------------------|
|--------------------------|
|-444444777777666666555555-|
|-222222555555444444333333-|
|--------------------------|
|--------------------------|
|
|
|HANNEMAN x2
|--------------------------|
|--------------------------|
|--------------------------|
|--------------------------|
|-2-----5-----4-----3------|
|-000000333333222222111111-|
  ........................



 RIFF 3 CHORUS x1


 FILL 3 END

|-------------------------------------|-------------------------------------
|-------------------------------------|-------------------------------------
|-------------------------------------|-------------------------------------
|-------------------------------------|-------------------------------------
|-4-----------------------------------|------8-------8---7\\\\--------------
|-2-----------------------------------|--0-0-6---0-0-6---5\\\\--------------
                                         . .     . .              x

12. Unguarded Instinct

Tuning E A D G B E

                      Repeat 5x
|-------|  |----------------------------------------------------------|
|-------|  |----------------------------------------------------------|
|-------|  |----------------------------------------------------------|
|-------|  |----------------------------------------------------------|
|2-3--2-|  |------2------2------2------2------2-----------------------|
|0-1--0-|  |-000000-000000-000000-000000-000000-----------------------|

                                              Repeat 2x
|--------------0---------------0-| |----------------------------------|
|--------------0---------------0-| |----------------------------------|
|-4-4-3---5-4---4---4-3---5-4---| |----------------------------------|
|-2-2-2---2-----2---2-2---2-----| |------------3-5-5h6p5-3-5---------|
|--------------------------------| |-7------7876----------------------|
|--------------------------------| |-0-0000-0000----------------------|

                          Repeat 4x
|---------| |---------------------------------------------------------|
|---------| |---------------------------------------------------------|
|---------| |---------------------------------------------------------|
|---------| |----------------------------------3-5-5h6p5-3-5----------|
|-7-7876-| |-7------7876----------7------7876------------------------|
|-0-0000-| |-0-0000-0000-00000000-0-0000-0000------------------------|



|--------------------------------------------------------------------|
|--------------------------------------------------------------------|
|--------------------------------------------------------------------|
|-5-------4---6---5------4---6---------------3-5-5h6p5-3-5-----------|
|-3-----3-4---4---3----3-4---4--7------7876--------------------7876--|
|-3---------------3-------------0-0000-0000-----------------0--0000--|


                          Repeat 4x
|--------------------------------------------------------------------|
|--------------------------------------------------------------------|
|--------------------------------------------------------------------|
|----------------------------------3-5-5h6p5-3-5---------------------|
|-7------7876----------7------7876-----------------------------------|
|-0-0000-0000-00000000-0-0000-0000-----------------------------------|


|--------------------------------------------------------------------|
|--------------------------------------------------------------------|
|--------------------------------------------------------------------|
|-5-------4---6---5------4---6---------------------------------------|
|-3-----3-4---4---3----3-4---4-33333333333333333333333333333333333---|
|-3---------------3------------11111111111111111111111111111111111---|

                      Repeat 4x
|--------------------------------------------------------------------|
|--------------------------------------------------------------------|
|--------------------------------------------------------------------|
|--------------------------------------------------------------------|
|-4-3-----333-------4-3-----333-------6-3----------------------------|
|-2-1-1111111111111-2-1-1111111111111-4-1----------------------------|

                      Repeat 5x
|--------------------------------------------------------------------|
|--------------------------------------------------------------------|
|--------------------------------------------------------------------|
|--------------------------------------------------------------------|
|-5----------------6-5----------------9------------------------------|
|-3-33333333333333-4-3-33333333444444-7------------------------------|

                      Repeat 8x
|-------|  |----------------------------------------------------------|
|-------|  |----------------------------------------------------------|
|-------|  |----------------------------------------------------------|
|-------|  |----------------------------------------------------------|
|2-3--2-|  |------2------2------2------2------2-----------------------|
|0-1--0-|  |-000000-000000-000000-000000-000000-----------------------|



|---------------------------------------------------------------------|
|---------------------------------------------------------------------|
|---------------------------------------------------------------------|
|-5-------4---6---5------4---6----------------------------------------|
|-3-----3-4---4---3----3-4---4----------------------------------------|
|-3---------------3---------------------------------------------------|



|--------------0---------------0--------------------------------------|
|--------------0---------------0--------------------------------------|
|-4-4-3---5-4---4---4-3---5-4----------------------------------------|
|-2-2-2---2-----2---2-2---2------------------------------------------|
|---------------------------------7----7777---------------------------|
|---------------------------------0----0000---------------------------|

13. Wicked

Tuning Db


 RIFF 1 INTRO x1 KING WITH LIGHT DISTORTION

|------------------------|------------------------|
|------------------------|------------------------|
|------------------------|------------------------|
|------------------------|------------------3--2--|
|----2--2--1-------------|----2--2--1-------------|
|-0----------------2-----|-0----------------------|



|------------------------|------------------------|
|------------------------|------------------------|
|------------------------|------------------------|
|------------------------|---------------0-2-3-2--|
|----2--2--1-------------|----2--2--1-------------|
|-0----------------2-----|-0----------------------|



|------------------------|------------------------|
|-------------4----------|-------------4----------|
|---------------3-4------|---------------3-4------|
|-------------------4-3--|-------------------4-3--|
|----2--2--1-------------|----2--2--1-------------|
|-0----------------------|-0----------------------|



|-------------|
|-------------|
|-------------|
|-------------|
|----2--2--1--|
|-0-----------|




 RIFF 2 MAIN x8

|-------------------------------|
|-------------------------------|
|-------------------------------|
|-------------------------1-----|
|-------------2---5---3---1-----|
|-0-1-3-1-0-1-0---3---1---------|
  . . . . . . .   .   .



 FILL 1

|---------------------------------------------------------------------------
|---------------------------------------------------------------------------
|---------------------------------------------------------------------------
|---------------------------------------------------------------------------
|-------------2---2---2---2---2-----2---2-----2---2---2---2---2-----2--2----
|-0-1-3-1-0-1-0---0---0---0---0-1-3-0---0-1-3-0---0---0---0---0-1-3-0--0-13-
  . . . . . . .   .   .   .   . . . .   . . . .   .   .   .   . . . .   . . .


|------------------------------------------|
|------------------------------------------|
|------------------------------------------|
|------------------------------------------|
|-2---2---2---2---2-------------2----------|
|-0---0---0---0---0-0-1-3-1-0-1-0----------|
  .   .   .   .   . . . . . . .  x



 RIFF 3 VERSE x2

|BOTH
|-----------------------------------------------------------|
|-----------------------------------------------------------|
|-----------------------------------------------------------|
|-------------------------------------------------------3-2-|
|-2---2---2---2---2-----2---2-----2---2---2-----1h2h4-2-----|
|-0---0---0---0---0-1-3-0---0-1-3-0---0---0-1-3-------------|
  .   .   .   .   . . . .   . . . .   .   . . .


|KING
|-----------------------------------------------------------|
|-----------------------------------------------------------|
|-----------------------------------------------------------|
|-------------------------------------------------------3-2-|
|-2---2---2---2---2-----2---2-----2---2---2-----1h2h4-2-----|
|-0---0---0---0---0-1-3-0---0-1-3-0---0---0-1-3-------------|
| .   .   .   .   . . . .   . . . .   .   . . .
|
|HANNEMAN
|-----------------------------------------------------------|
|-----------------------------------------------------------|
|-4-------------------------3-------------------------------|
|-2-------------------------2---------------------------3-2-|
|-----------------------------------------------1h2h4-2-----|
|-------------------------------------------1-3-------------|
                                            . .



 FILL 2

|KING
|---------------------------------|
|---------------------------------|
|---------------------------------|
|---------------------1010-9^^^---|
|-----2-2-1^^---8-8-7-------------|
|-0-------------------------------|
|
|
|HANNEMAN
|---------------------------------|
|---------------------------------|
|---------------------------------|
|---------------------------------|
|---------------------------------|
|-0---2-2-1^^---8-8-7--8-8-7^^^---|




 RIFF 4 CHORUS x2

|-------------------------------------------|
|-------------------------------------------|
|-------------------------------------------|
|-------------------------------------------|
|-------------3---2---2---2---2---2---2-----|
|-0-1-3-1-0-1-1---0---0---0---0---0---0-1-3-|
  . . . . . .     .   .   .   .   .   . . .

|-------------------------------------------|
|-------------------------------------------|
|-------------------------------------------|
|-------------------------------------3-----|
|-3---2---2---2---2---2---2-----3-----1-----|
|-1---0---0---0---0---0---0-1-3-1---0-------|
      .   .   .   .   .   . . .     .


|---------------------------------------|
|---------------------------------------|
|---------------------------------------|
|---------------------------------------|
|---------3---2---2---2---2---2---2-----|
|-0-1-3-1-1---0---0---0---0---0---0-1-3-|
  . . . .     .   .   .   .   .   . . .


|-------------------------------------------|
|-------------------------------------------|
|-------------------------------------------|
|-------------------------------------3-----|
|-3---2---2---2---2---2---2-----3-----1-----|
|-1---0---0---0---0---0---0-1-3-1---0-------|
      .   .   .   .   .   . . .     .



 FILL 3

|-------------|
|-------------|
|-------------|
|-------------|
|-------------|
|-0-1-3-1-0-1-|
  . . . . . .



 FILL 2


 RIFF 3A VERSE x1

|BOTH
|-----------------------------------------------------------|
|-----------------------------------------------------------|
|-----------------------------------------------------------|
|-------------------------------------------------------3-2-|
|-----------------------------------------------1h2h4-2-----|
|-0-0-0-0-0-0-0-0-0-0-0-0-0-0-0-0-0-0-0-0-0-1-3-------------|
  . . . . . . . . . . . . . . . . . . . . . . .


|KING
|-----------------------------------------------------------|
|-----------------------------------------------------------|
|-----------------------------------------------------------|
|-------------------------------------------------------3-2-|
|-----------------------------------------------1h2h4-2-----|
|-0-0-0-0-0-0-0-0-0-0-0-0-0-0-0-0-0-0-0-0-0-1-3-------------|
| . . . . . . . . . . . . . . . . . . . . . . .
|
|HANNEMAN
|-----------------------------------------------------------|
|-----------------------------------------------------------|
|-4-------------------------3-------------------------------|
|-2-------------------------2---------------------------3-2-|
|-----------------------------------------------1h2h4-2-----|
|-------------------------------------------1-3-------------|
                                            . .


|BOTH
|-----------------------------------------------------------|
|-----------------------------------------------------------|
|-----------------------------------------------------------|
|-------------------------------------------------------3-2-|
|-----------------------------------------------1h2h4-2-----|
|-0-0-0-0-0-0-0-0-0-0-0-0-0-0-0-0-0-0-0-0-0-1-3-------------|
  . . . . . . . . . . . . . . . . . . . . . . .


|KING
|-----------------------------------------------------------|
|-----------------------------------------------------------|
|-----------------------------------------------------------|
|-----------------------------------------------------------|
|-----------------------------------------------1h2p1-------|
|-0-0-0-0-0-0-0-0-0-0-0-0-0-0-0-0-0-0-0-0-0-1-3-------4-3-1-|
| . . . . . . . . . . . . . . . . . . . . . . .       . . .
|
|HANNEMAN
|-----------------------------------------------------------|
|-----------------------------------------------------------|
|-4-------------------------3-------------------------------|
|-2-------------------------2-------------------------------|
|-----------------------------------------------1h2p1-------|
|-------------------------------------------1-3-------4-3-1-|
                                            . .       . . .



 FILL 4 HANNEMAN OVER RIFF 1

|HANNEMAN
|-----------------------------------------------------------|
|-----------------------------------------------------------|
|-----------------------------------------------------------|
|-----------------------------------------------------------|
|-2---------------------------------------------------------|
|-0---------------------------------------------------------|



 RIFF 1 INTRO x1 KING WITH LIGHT DISTORTION

 RIFF 4 CHORUS x2

 FILL 2


 SOLO 1 KING
  WAH_____ WAH     WAH_______    WAH     WAH_______     WAH______________
|-------------------------------------------------------------------------|
|-------------------------------------------------------3-222-3-222-3-222-|
|-11111111-1b^^----1-3-4-3-6b^^--5b^^----1-3-4-3-1b^^^--------------------|
|-------------------------------------------------------------------------|
|-------------------------------------------------------------------------|
|-------------------------------------------------------------------------|




 RIFF 4A x1 UNDER SOLO 1

|-------------------------------------------|
|-------------------------------------------|
|-------------------------------------------|
|-------------------------------------------|
|-------------3-----------------------------|
|-0-1-3-1-0-1-1---0-0-0-0-0-0-0-0-0-0-0-1-3-|
  . . . . . .     . . . . . . . . . . . . .

|-------------------------------------------|
|-------------------------------------------|
|-------------------------------------------|
|-------------------------------------3-----|
|-3-----------------------------3-----1-----|
|-1---0-0-0-0-0-0-0-0-0-0-0-1-3-1---0-------|
      . . . . . . . . . . . . .     .



 SOLO 2 HANNEMAN

|----------------------------------------------------------|
|----------------------------------------------------------|
|---------------------------------12--13--12--13--12b^^----|
|---------------------11--12--14---------------------------|
|---------10--11--13---------------------------------------|
|-10--12---------------------------------------------------|


|-----------------------------------------------------------------------|
|-------------------------------------------------------/14b^^^^^^^^----|
|-12-13-15-13-12-13-12b^^----12-13-15-13-12-----------------------------|
|-------------------------------------------15-14b^^--------------------|
|-----------------------------------------------------------------------|
|-----------------------------------------------------------------------|


|-12-13-15-13-12-----------------|
|----------------15-13b^^\\\\----|
|--------------------------------|
|--------------------------------|
|--------------------------------|
|--------------------------------|




 RIFF 4A x1 UNDER SOLO 2


 SOLO 3 KING
  WAH_______________________  WAH   WAH   WAH   WAH
|-----------------------------------------------------23b^^--23b^^^^----|
|-----------------------------15b^--17b^--18b^--20b^--------------------|
|-//101010-999-131313-121212--15b^--16b^--18b^--19b^--------------------|
|-----------------------------------------------------------------------|
|-----------------------------------------------------------------------|
|-----------------------------------------------------------------------|




 RIFF 4A x1 UNDER SOLO 3


 SOLO 4 HANNEMAN
  WAH____________________________________________________________________
|-18-15-16-15-16-15-16-15-18-15-16-15-16-15-16-15-18-15-16-15-16-15-16-15-|
|-------------------------------------------------------------------------|
|-------------------------------------------------------------------------|
|-------------------------------------------------------------------------|
|-------------------------------------------------------------------------|
|-------------------------------------------------------------------------|

  WAH____________________________________________________________________
|-------------------------------------------------------------------------|
|-18-17-15-18-17-15-18-17-15-18-17-15-------------------------------------|
|-------------------------------------18-16-15-18-16-15-18-16-15-18-16-15-|
|-------------------------------------------------------------------------|
|-------------------------------------------------------------------------|
|-------------------------------------------------------------------------|


|---------------------------------------|
|---------------------------------------|
|---------------------------------------|
|-17-15-14-17-15-14-15b^^----14b^^^^----|
|---------------------------------------|
|---------------------------------------|




 RIFF 4A x1 UNDER SOLO 4


 FILL 5

|KING
|----------------------------------|
|----------------------------------|
|----------------------------------|
|----------------------------------|
|-------------2--------------------|
|-0-1-3-1-0-1-0--------------------|
| . . . . . .  x
|
|HANNEMAN
|----------------------------------|
|----------------------------------|
|----------------------------------|
|----------------------------------|
|-------------2--------------------|
|-16\\\\\\\\\\0--------------------|
               x



 RIFF 5 INTERLUDE x1

|KING
|------------------------------------------------------|
|------------------------------------------------------|
|------------------------------------------------------|
|------------------------------101010-9b^^-------------|
|-2---2-2-2-1b^^---8-8-8-7b^^------------------------4-|
|-0----------------------------------------------1-3---|
|
|
|HANNEMAN
|------------------------------------------------------|
|------------------------------------------------------|
|------------------------------------------------------|
|------------------------------------------------------|
|-2--------------------------------------------------4-|
|-0-----------------------------8-8-8-7b^^-------1-3---|



|KING
|------------------------------------------------------|
|------------------------------------------------------|
|------------------------------------------------------|
|------------------------------101010-9b^^-------------|
|-2---2-2-2-1b^^---8-8-8-7b^^----------------5-4---8-7-|
|-0----------------------------------------3-----6-----|
|
|
|HANNEMAN
|------------------------------------------------------|
|------------------------------------------------------|
|------------------------------------------------------|
|------------------------------------------------------|
|-2------------------------------------------5-4---8-7-|
|-0----------------8-8-8-7b^^---8-8-8-7b^^-3-----6-----|




 RIFF 6 INTERLUDE x1

|-------------------------------------------------------------------------|
|-------------------------------------------------------------------------|
|-------------------------------------------------------------------------|
|-------------------------------------------------------------------------|
|-3---3---3---3---3---3---3---3---3---3---3---3---3---3---3---3---3---3---|
|-1---1---1---1---1---1---1---1---1---1---1---1---1---1---1---1---1---1---|
  .   .   .   .   .   .   .   .   .   .   .   .   .   .   .   .   .   .


|-------------|
|-------------|
|-------------|
|-------------|
|-6-5-6-5-6-5-|
|-4-3-4-3-4-3-|
  . . . . . .



 RIFF 5A INTERLUDE x1

|KING
|------------------------------------------------------|
|------------------------------------------------------|
|------------------------------------------------------|
|------------------------------101010-9b^^-------------|
|-2---2-2-2-1b^^---8-8-8-7b^^------------------------4-|
|-0----------------------------------------------1-3---|
|
|
|HANNEMAN
|------------------------------------------------------|
|------------------------------------------------------|
|------------------------------------------------------|
|------------------------------------------------------|
|-2--------------------------------------------------4-|
|-0-----------------------------8-8-8-7b^^-------1-3---|




 RIFF 6 INTERLUDE x1


 RIFF 5B INTERLUDE x1

|KING
|--------------------------------------------------------|
|--------------------------------------------------------|
|----------------------------------------------9-8--1211-|
|------------------------------101010-9b^^---7----10-----|
|-2---2-2-2-1b^^---8-8-8-7b^^----------------------------|
|-0------------------------------------------------------|
|
|
|HANNEMAN
|--------------------------------------------------------|
|--------------------------------------------------------|
|----------------------------------------------9-8--1211-|
|--------------------------------------------7----10-----|
|-2------------------------------------------------------|
|-0---2-2-2-1b^^---8-8-8-7b^^---3-3-3-2b^^---------------|




 RIFF 7 CHORUS x2

|----------------------------|----------------------------|
|----------------------------|----------------------------|
|-12\\\\---------------------|-12\\\\---------------------|
|-12\\\\---------------------|-12\\\\---------------------|
|----------3-----2-----1-1-1-|----------3-----2-----1-----|
|----------3-----2-----1-1-1-|----------3-----2-----1-----|
                       . . .



 RIFF 6 INTERLUDE x1

 RIFF 5A INTERLUDE x1

 RIFF 6 INTERLUDE x1

 RIFF 5B INTERLUDE x1

 RIFF 7 CHORUS x2


 FILL 6

|KING
|------------------------------------|
|------------------------------------|
|------------------------------------|
|------------------------------------|
|-5\\\\----------------------x\\\\\\-|
|-3\\\\------------------------------|
|
|
|HANNEMAN
|------------------------------------|
|------------------------------------|
|------------------------------------|
|-------------------6--6--9-12-12-12-|
|-5--5--5--8--8--8--4--4--7-10-10-10-|
|-3--3--3--6--6--6-------------------|




 RIFF 6 INTERLUDE x1

 RIFF 5B INTERLUDE x1

 RIFF 7 CHORUS x4


 FILL 7 END

|--------------------------------------------------------------------------|
|--------------------------------------------------------------------------|
|--------------------------------------------------------------------------|
|--------------------------------------------------------------------------|
|-2------------------------------------------------------------------------|
|-0------------------------------------------------------------------------|



Related for Diabolus In Musica tab