Song name
# A B C D E F G H I J K L M N O P Q R S T U V W X Y Z

Slayer - Flesh Storm tab

Tuning Eb


 INTRO FILL

|KING WITH HEAVY REVERB, CHORUS AND DOUBLED 5TH HIGHER EFFECT
| N.H. BAR
|-----------------------------------------------------------------|
|-----------------------------------------------------------------|
|-7//\/\/\///\/\/\///\/\/\\/\/\/\\//\/\//\/\//\/\\\/\\/\\\\\\-----|
|-----------------------------------------------------------------|
|-----------------------------------------------------------------|
|-----------------------------------------------------------------|
|
|
|HANNEMAN VOLUME RISING
|-----------------------------------------------------------------|
|-----------------------------------------------------------------|
|-----------------------------------------------------------------|
|-----------------------------------------------------------------|
|-2---------------------------------------------------------------|
|-0---------------------------------------------------------------|




 RIFF 1 INTRO X2

|KING
|-----------------------------------------|
|-----------------------------------------|
|-----------------------------------------|
|-----------------------------------------|
|-6\5-2-3-2---------2-3--------2-5--------|
|-4\3-0-1-000000000-0-1-000000-0-3-000000-|
|          ........     ......     ......
|
|HANNEMAN
|-----------------------------------------|
|-----------------------------------------|
|-----------------------------------------|
|-----------------------------------------|
|-6\5-2-3-2---------2-3--------2-5--------|
|-4\3-0-1-0---------0-1--------0-3--------|
           x           x          x



 RIFF 1A INTRO x1

|x3
|-----------------------------------------|
|-----------------------------------------|
|-----------------------------------------|
|-----------------------------------------|
|-6\5-2-3-2---------2-3--------2-5--------|
|-4\3-0-1-000000000-0-1-000000-0-3-000000-|
           ........     ......     ......


|x1
|----------------------------------------------|
|----------------------------------------------|
|----------------------------------------------|
|----------------------------------------------|
|-6\5-2-3-2---------2-3--------2-5-3-5-6-------|
|-4\3-0-1-000000000-0-1-000000-0-3-1-3-4-------|
           ........     ......



 RIFF 2 VERSE x1

|---------------------------------|---------------------------------|
|---------------------------------|---------------------------------|
|---------------------------------|---------------------------------|
|---------------------------------|---------------------------------|
|-3-------3-------3-------4-------|-3-------3-------3-------5-------|
|-1-11111-1-11111-1-11111-2-22222-|-1-11111-1-11111-1-11111-3-33333-|
    .....   .....   .....   .....     .....   .....   .....   .....


|---------------------------------|---------------------------------|
|---------------------------------|---------------------------------|
|---------------------------------|---------------------------------|
|---------------------------------|-------------------------5---4---|
|-3-------3-------3-------4-------|-3-------3-------3---6---3---2---|
|-1-11111-1-11111-1-11111-2-22222-|-1-11111-1-11111-1---4-----------|
    .....   .....   .....   .....     .....   .....



 RIFF 3 BRIDGE x1

|---------------------------------|---------------------------------|
|---------------------------------|---------------------------------|
|---------------------------------|---------------------------------|
|---------------------------------|-------------------------5---4---|
|-5-----------------------6-------|-5---------------5---6---3---2---|
|-3-33333-6-33333-6-33333-4-44444-|-3-33333-6-33333-3---4-----------|
    ..... . ..... . .....   .....     ..... . .....


|---------------------------------|---------------------------------|
|---------------------------------|---------------------------------|
|---------------------------------|---------------------------------|
|---------------------------------|---------------------------------|
|-5-----------------------6-------|-5---------------5---6---5---6---|
|-3-33333-6-33333-6-33333-4-44444-|-3-33333-6-33333-3---4---3---4---|
    ..... . ..... . .....   .....     ..... . .....



 RIFF 2A VERSE x1

|---------------------------------|---------------------------------|
|---------------------------------|---------------------------------|
|---------------------------------|---------------------------------|
|---------------------------------|---------------------------------|
|-3-------3-------3-------4-------|-3-------3-------3---6---5---2---|
|-1-11111-1-11111-1-11111-2-22222-|-1-11111-1-11111-1---4---3---0---|
    .....   .....   .....   .....     .....   .....


|---------------------------------|---------------------------------|
|---------------------------------|---------------------------------|
|---------------------------------|---------------------------------|
|---------------------------------|---------------------------------|
|-3-------3-------3-------5-------|-3-------3-------3---6---5---3---|
|-1-11111-1-11111-1-11111-3-33333-|-1-11111-1-11111-1---4---3---1---|
    .....   .....   .....   .....     .....   .....



 RIFF 4 CHORUS x1

|---------------------------------|---------------------------------|
|---------------------------------|---------------------------------|
|---------------------------------|---------------------------------|
|---------------------------------|-----------------------------6---|
|---------2-----------2---7-8-710-|---------2-----------2---7-8---8-|
|-0-0-0-0-0---0-0-0-0-0-----------|-0-0-0-0-0---0-0-0-0-0-----------|
  . . . .     . . . .               . . . .     . . . .


|---------------------------------|---------------------------------|
|---------------------------------|---------------------------------|
|---------------------------------|---------------------------------|
|---------------------------------|------------------------10---9---|
|---------2-----------2---7-8-710-|---------2-----------2---8---7---|
|-0-0-0-0-0---0-0-0-0-0-----------|-0-0-0-0-0---0-0-0-0-0-----------|
  . . . .     . . . .               . . . . .   . . . . .


|---------------------------------|---------------------------------|
|---------------------------------|---------------------------------|
|---------------------------------|---------------------------------|
|---------------------------------|-----------------------------6---|
|-------------------------7-8-710-|-------------------------7-8---8-|
|-0-0-0-0-0-0-0-0-0-0-0-0---------|-0-0-0-0-0-0-0-0-0-0-0-0---------|
  . . . . . . . . . . . .           . . . . . . . . . . . .


|---------------------------------|-------------------------------------|
|---------------------------------|-------------------------------------|
|---------------------------------|-------------------------------------|
|---------------------------------|------------------------10---9-------|
|-------------------------7-8-710-|---------2-----------2---8---7-------|
|-0-0-0-0-0-0-0-0-0-0-0-0---------|-0-0-0-0-0---0-0-0-0-0---------------|
  . . . . . . . . . . . .           . . . . .   . . . . .



 SOLO 1 HANNEMAN

|--------------12--------------14--------------15----------------------------|
|-121212121212----121212121212----121212121212----12121212121213131313b^^^---|
|----------------------------------------------------------------------------|
|----------------------------------------------------------------------------|
|----------------------------------------------------------------------------|
|----------------------------------------------------------------------------|


|-16-19-18-16----------18-16-15----------------------------------------------|
|-------------18-17-15----------18-17-15-17-18-17-15-------------------------|
|----------------------------------------------------18-16-15-16-18-16-15----|
|-------------------------------------------------------------------------17-|
|----------------------------------------------------------------------------|
|----------------------------------------------------------------------------|


|----------------------------------------------------------------------------|
|----------------------------------------------------------------------------|
|----------------------------------------------------------------------------|
|-15-14-15-17-15-14----------------------------------------------------------|
|-------------------16-14-13-14-16-14-13-------------------------13-14-16-13-|
|----------------------------------------15-13-12-13-15-12-13-15-------------|


|----------------------------------------------------------------15-16-18b\---|
|----------------------------------------------17b^^^---17b^^^----------------|
|-------------------------15-16-18-15-16-18-15-16b^^^---16b^^^----------------|
|-------14-15-17-14-15-17-----------------------------------------------------|
|-14-16-----------------------------------------------------------------------|
|-----------------------------------------------------------------------------|





 RIFF 1B x1 UNDER SOLO 1

|x3
|-----------------------------------------|
|-----------------------------------------|
|-----------------------------------------|
|-----------------------------------------|
|-6\5-2-3-2---------2-3--------2-5--------|
|-4\3-0-1-000000000-0-1-000000-0-3-000000-|
           ........     ......     ......


|x1
|----------------------------------------------|
|----------------------------------------------|
|----------------------------------------------|
|----------------------------------------------|
|-6\5-2-3-2---------2-3--------2-5-3-5-6-------|
|-4\3-0-1-000000000-0-1-000000-0-3-1-3-4-------|
           ........     ......          x



 RIFF 2 VERSE x1

 RIFF 3 BRIDGE x1

 RIFF 2A VERSE x1

 RIFF 4A CHORUS x1

|---------------------------------|---------------------------------|
|---------------------------------|---------------------------------|
|---------------------------------|---------------------------------|
|---------------------------------|-----------------------------6---|
|---------2-----------2---7-8-710-|---------2-----------2---7-8---8-|
|-0-0-0-0-0---0-0-0-0-0-----------|-0-0-0-0-0---0-0-0-0-0-----------|
  . . . .     . . . .               . . . .     . . . .


|---------------------------------|---------------------------------|
|---------------------------------|---------------------------------|
|---------------------------------|---------------------------------|
|---------------------------------|------------------------10---9---|
|---------2-----------2---7-8-710-|---------2-----------2---8---7---|
|-0-0-0-0-0---0-0-0-0-0-----------|-0-0-0-0-0---0-0-0-0-0-----------|
  . . . .     . . . .               . . . . .   . . . . .


|---------------------------------|---------------------------------|
|---------------------------------|---------------------------------|
|---------------------------------|---------------------------------|
|---------------------------------|-----------------------------6---|
|-------------------------7-8-710-|-------------------------7-8---8-|
|-0-0-0-0-0-0-0-0-0-0-0-0---------|-0-0-0-0-0-0-0-0-0-0-0-0---------|
  . . . . . . . . . . . .           . . . . . . . . . . . .


|---------------------------------|---------------------------------|
|---------------------------------|---------------------------------|
|---------------------------------|---------------------------------|
|---------------------------------|---------------------------------|
|-------------------------7-8-710-|---------2-----------2---3---6---|
|-0-0-0-0-0-0-0-0-0-0-0-0---------|-0-0-0-0-0---0-0-0-0-0---1---4---|
  . . . . . . . . . . . .           . . . . .   . . . . .



 RIFF 5 BREAK x1

|x5
|---------------------------------|
|---------------------------------|
|---------------------------------|
|---------------------------------|
|-5p2-----6\5-----5p2-------------|
|-3p0-0-0-4\3-0-0-3p0-0-0-0-0-0-0-|
      . .     . .     . . . . . .


|x1
|-----------------------------------------|
|-----------------------------------------|
|-----------------------------------------|
|-----------------------------------------|
|-5p2-----6\5-----8-8-8-8-8-8-8-8-8-8-8-8-|
|-3p0-0-0-4\3-0-0-6-6-6-6-6-6-6-6-6-6-6-6-|
      . .     . .



 RIFF 1C BREAK x1

|KING
|-----------------------------------------|
|-----------------------------------------|
|-----------------------------------------|
|-----------------------------------------|
|-6\5-2-3-2---------2-3--------2-5--------|
|-4\3-0-1-000000000-0-1-000000-0-3--------|
|          ........     ......    x
|
|HANNEMAN
|-----------------------------------------|
|-----------------------------------------|
|-----------------------------------------|
|-----------------------------------------|
|-6\5-2-3-2---------2-3--------2-5--------|
|-4\3-0-1-0---------0-1--------0-3--------|
           x           x          x



 SOLO 2 KING

|-19b^^^---19b^-19b^-19b^-19b^^^---191919-24-19-21-19-22-19-24-19-21-19-22-19-|
|-22b^^^---22b^-22b^-22b^-22b^^^----------------------------------------------|
|-----------------------------------------------------------------------------|
|-----------------------------------------------------------------------------|
|-----------------------------------------------------------------------------|
|-----------------------------------------------------------------------------|

                                      WAH & BAR S.H. BAR
|-24-19-21-19-22-19-24-19-21-19-22-19-----------------------------------------|
|-----------------------------------------------------------------------------|
|-----------------------------------------------------------------------------|
|-----------------------------------------------------------------------------|
|--------------------------------------------------------------------12-14-15-|
|-------------------------------------0////\\\\h3\\\\\\-----12-13-15----------|


|----------------------------------------------12----13-12-15-13-17-15-19-17-|
|----------------------------------13-12-15-13----15-------------------------|
|-------------------12-14-12-16-14-------------------------------------------|
|----------12-14-15----------------------------------------------------------|
|-12-14-15-------------------------------------------------------------------|
|----------------------------------------------------------------------------|


|-20-19-17-20-19-17----------20-19-17-20-19-17----------------------------|
|-------------------20b^^^---------------------18b^^^---18b^^^---18b^^^---|
|-------------------------------------------------------------------------|
|-------------------------------------------------------------------------|
|-------------------------------------------------------------------------|
|-------------------------------------------------------------------------|


|-15b^^^---18fb^^^^^r-----18b^^^---18-16-15-----------------------------------|
|-18b^^^------------------------------------18-17-15--------------------------|
|----------------------------------------------------18-16-15-----------------|
|-------------------------------------------------------------17-15-14--------|
|----------------------------------------------------------------------15b^---|
|-----------------------------------------------------------------------------|

  WAH______                  WAH & BAR N.H. BAR                WAH________
|-//20b^^^202020202020b^^^-------------------------------------------------|
|--------------------------------------------------------------------------|
|----------------------------0//\\\\\\h3//\/\/\\\/\\/\/\\\-----6-3h4-6-3h4-|
|--------------------------------------------------------------------------|
|--------------------------------------------------------------------------|
|--------------------------------------------------------------------------|
                                                               T     T
  WAH_____________________________________________________________ PICK SLIDE
|-----------------------------------------------------------------------------|
|-----------------------------------------------------------------------------|
|-6-3h4-7-4h6-7-4h6-7-4h6-9-6h7-9-6h7-9-6h7-10-7h9-10-7h9-10-7h9-12////////24-|
|-----------------------------------------------------------------------------|
|-----------------------------------------------------------------------------|
|-----------------------------------------------------------------------------|
  T     T     T     T     T     T     T      T      T      T

|----------------------------17-19-20-19b^^^^^-----|
|-------------------17-19-20-----------------------|
|----------16-17-19--------------------------------|
|-16-17-19-----------------------------------------|
|--------------------------------------------------|
|--------------------------------------------------|




 RIFF 1D x4 UNDER SOLO 2

|-----------------------------------------|
|-----------------------------------------|
|-----------------------------------------|
|-----------------------------------------|
|-6\5-2-3-2---------2-3--------2-5--------|
|-4\3-0-1-000000000-0-1-000000-0-3-000000-|
           ........     ......     ......



 RIFF 3A x1 UNDER SOLO

|---------------------------------|---------------------------------|
|---------------------------------|---------------------------------|
|---------------------------------|---------------------------------|
|---------------------------------|---------------------------------|
|-5-----------------------6-------|-5-----------------------6-------|
|-3-33333-6-33333-6-33333-4-44444-|-3-33333-6-33333-6-33333-4-44444-|
    ..... . ..... . .....   .....     ..... . ..... . .....   .....


|---------------------------------|---------------------------------|
|---------------------------------|---------------------------------|
|---------------------------------|---------------------------------|
|---------------------------------|-------------------------5---4---|
|-5-----------------------6-------|-5---------------5---6---3---2---|
|-3-33333-6-33333-6-33333-4-44444-|-3-33333-6-33333-3---4-----------|
    ..... . ..... . .....   .....     ..... . .....


|---------------------------------|---------------------------------|
|---------------------------------|---------------------------------|
|---------------------------------|---------------------------------|
|---------------------------------|-------------------------5---4---|
|-5-----------------------6-------|-5---------------5---6---3---2---|
|-3-33333-6-33333-6-33333-4-44444-|-3-33333-6-33333-3---4-----------|
    ..... . ..... . .....   .....     ..... . .....



 RIFF 6 INTERLUDE x1

|KING
|---------------------------------|---------------------------------|
|---------------------------------|---------------------------------|
|---------------------------------|---------------------------------|
|---------------------------------|-----------------6-7----10-------|
|-----------------7-8---7---8-7-8-|---------------------7-8---8-7-8-|
|-0-0-0-0-0-0-0-0-----0---0-------|-0-0-0-0-0-0-0-0-----------------|
| . . . . . . . .     .   .         . . . . . . . .
|
|HANNEMAN
|---------------------------------|---------------------------------|
|---------------------------------|---------------------------------|
|---------------------------------|---------------------------------|
|---------------------------------|-----------------6-7-------------|
|-----------------7-8---7---8-7-8-|---------------------7-810-------|
|-0-0-0-0-0-0-0-0-----0---0-------|-0-0-0-0-0-0-0-0-----------8-7-1-|
  . . . . . . . .     .   .         . . . . . . . .


|KING
|---------------------------------|---------------------------------|
|---------------------------------|---------------------------------|
|---------------------------------|---------------------------------|
|---------------------------------|--------10---9---6-7----10-------|
|-----------------7-8---7---8-7-8-|---------8---7-------7-8---8-7-8-|
|-0-0-0-0-0-0-0-0-----0---0-------|-0-0-0-0-------------------------|
| . . . . . . . .     .   .         . . . .
|
|HANNEMAN
|---------------------------------|---------------------------------|
|---------------------------------|---------------------------------|
|---------------------------------|---------------------------------|
|---------------------------------|--------10---9---6-7-------------|
|-----------------7-8---7---8-7-8-|---------8---7-------7-810-------|
|-0-0-0-0-0-0-0-0-----0---0-------|-0-0-0-0-------------------8-7-1-|
  . . . . . . . .     .   .         . . . .


|KING
|---------------------------------|---------------------------------|
|---------------------------------|---------------------------------|
|---------------------------------|---------------------------------|
|---------------------------------|-----------------6-7----10-------|
|-----------------7-8---7---8-7-8-|---------------------7-8---8-7-8-|
|-0-0-0-0-0-0-0-0-----0---0-------|-0-0-0-0-0-0-0-0-----------------|
| . . . . . . . .     .   .         . . . . . . . .
|
|HANNEMAN
|---------------------------------|---------------------------------|
|---------------------------------|---------------------------------|
|---------------------------------|---------------------------------|
|---------------------------------|-----------------6-7-------------|
|-----------------7-8---7---8-7-8-|---------------------7-810-------|
|-0-0-0-0-0-0-0-0-----0---0-------|-0-0-0-0-0-0-0-0-----------8-7-1-|
  . . . . . . . .     .   .         . . . . . . . .


|KING
|---------------------------------|---------------------------------|
|---------------------------------|---------------------------------|
|---------------------------------|---------------------------------|
|---------------------------------|--------10---9---6-7-------------|
|-----------------7-8---7---8-7-8-|---------8---7-------7-810-------|
|-0-0-0-0-0-0-0-0-----0---0-------|-0-0-0-0-------------------8-7-1-|
| . . . . . . . .     .   .         . . . .
|
|HANNEMAN
|---------------------------------|---------------------------------|
|---------------------------------|---------------------------------|
|---------------------------------|---------------------------------|
|---------------------------------|--------10---9---6-7-------------|
|-----------------7-8---7---8-7-8-|---------8---7-------7-810-------|
|-0-0-0-0-0-0-0-0-----0---0-------|-0-0-0-0-------------------8-7-1-|
  . . . . . . . .     .   .         . . . .



 RIFF 7 INTERLUDE x4

|---------------------------------|
|---------------------------------|
|---------------------------------|
|---------------------------------|
|-3p2-------------3p2-----5\3-----|
|-1p0-0-0-0-0-0-0-1p0-0-0-3\1-0-0-|
      . . . . . .     . .     . .



 RIFF 7A INTERLUDE x1

|x5
|---------------------------------|
|---------------------------------|
|---------------------------------|
|---------------------------------|
|-3p2-----5\3-------------3p2-----|
|-1p0-0-0-3\1-0-0-0-0-0-0-1p0-0-0-|
      . .     . . . . . .     . .


|x1
|---------------------------------|
|---------------------------------|
|---------------------------------|
|---------------------------------|
|-3p2-----8-8-8-8-8-8-8-8-8-8-8-8-|
|-1p0-0-0-6-6-6-6-6-6-6-6-6-6-6-6-|
      . .



 FILL 1

|KING
| WAH & BAR
|---------|
|---------|
|-0//\\\\-|
|---------|
|---------|
|---------|
|
|
|HANNEMAN
|---------|
|---------|
|---------|
|---------|
|-x\\\\\\-|
|---------|




 RIFF 4B CHORUS x1

|---------------------------------|---------------------------------|
|---------------------------------|---------------------------------|
|---------------------------------|---------------------------------|
|---------------------------------|-----------------------------6---|
|---------2-----------2---7-8-710-|---------2-----------2---7-8---8-|
|-0-0-0-0-0---0-0-0-0-0-----------|-0-0-0-0-0---0-0-0-0-0-----------|
  . . . .     . . . .               . . . .     . . . .


|---------------------------------|---------------------------------|
|---------------------------------|---------------------------------|
|---------------------------------|---------------------------------|
|---------------------------------|------------------------10---9---|
|---------2-----------2---7-8-710-|---------2-----------2---8---7---|
|-0-0-0-0-0---0-0-0-0-0-----------|-0-0-0-0-0---0-0-0-0-0-----------|
  . . . .     . . . .               . . . . .   . . . . .


|---------------------------------|---------------------------------|
|---------------------------------|---------------------------------|
|---------------------------------|---------------------------------|
|---------------------------------|-----------------------------6---|
|-------------------------7-8-710-|-------------------------7-8---8-|
|-0-0-0-0-0-0-0-0-0-0-0-0---------|-0-0-0-0-0-0-0-0-0-0-0-0---------|
  . . . . . . . . . . . .           . . . . . . . . . . . .


|---------------------------------|-------------------------------------|
|---------------------------------|-------------------------------------|
|---------------------------------|-------------------------------------|
|---------------------------------|-------------------------------------|
|-------------------------7-8-710-|---------2-----------2---3---6-------|
|-0-0-0-0-0-0-0-0-0-0-0-0---------|-0-0-0-0-0---0-0-0-0-0---1---4-------|
  . . . . . . . . . . . .           . . . . .   . . . . .



 FILL 2 END

|---------------|
|---------------|
|---------------|
|---------------|
|-6\5-2-3-2-----|
|-4\3-0-1-0-----|
           x

Tap to rate this tab
 
# A B C D E F G H I J K L M N O P Q R S T U V W X Y Z