Guitaretab - guitar tabs
Song name
# A B C D E F G H I J K L M N O P Q R S T U V W X Y Z

Slayer - Catatonic tab

catatonic
slayer
christ illusion

Tabbed by David De la Cruz

tuning 1=C# 2=G# 3=E 4=B 5=F# 6=B

intro

C#|------------------------------------------------------|
G#|------------------------------------------------------|
E |------------------------------------------------------|
B |----------------0--0-0-------------------------6--6---|
F#|---7-6-7-6-7-6--0--0-0----7-6-7-6-7-6-7/11--6-7--7-6--|  x4
B |----------------0--0-0--------------------------------|
PM                    . .

    first verse
C#|-----------------------------------|
G#|-----------------------------------|
E |-----------------------------------|
B |-----------------------------------|
F#|-------------------------------6-7-|  
B |--0000--00-0000--0000--00-0000-----|

Chorus

C#|--------------------------------|
G#|--------------------------------|
E |--------------------------------|
B |--0-2-3------0-4-3-2------------|
F#|--0-2-3--x3--0-4-3-2------------|  
B |--0-2-3------0-4-3-2------------|
PM   . . .      . . . .

"My blood soaked hands devise........." 
             
             Heavy
C#|--------------------------------|
G#|--------------------------------|
E |--------------------------------|
B |--0-3-5--0-3-6------------------| listen the song
F#|--0-3-5--0-3-6------------------|  
B |--0-3-5--0-3-6------------------|

 Next verse
C#|-----------------------------------|
G#|-----------------------------------|
E |-----------------------------------|
B |-----------------------------------|
F#|-------------------------------6-7-|  
B |--0000--00-0000--0000--00-0000-----|

Then
"Embrace it....."
C#|--------------------------------|
G#|--------------------------------|
E |--------------------------------|
B |--0-2-3------0-4-3-2------------|
F#|--0-2-3--x3--0-4-3-2------------|  
B |--0-2-3------0-4-3-2------------|
PM   . . .      . . . .

then
[ Tab from: http://www.guitaretab.com/s/slayer/80734.html ]
C#|-----------------------------------|
G#|-----------------------------------|
E |-----------------------------------|
B |-----------------------------------|  x8
F#|-----6-7-6-7----6-7-9-7-6----------|  
B |--00---------00--------------------|
PM   ..         ..

when plays the solo the other guitar play this

        Heavy
C#|--------------------------------|
G#|--------------------------------|
E |--------------------------------|
B |--0-3-5--0-3-6------------------|
F#|--0-3-5--0-3-6------------------|  listen the song
B |--0-3-5--0-3-6------------------|

after the solo
This part is very cool  HEAVY AND  FAST
C#|--------------------------------------------------------|
G#|--------------------------------------------------------|
E |--------------------------------------------------------|
B |--------------------------------------------------------| listen the song
F#|--------------------------------------------------------|  
B |000000-00 000000-000000-00000--x2--111111111-11-1111111-|

Then

C#|--------------------------------|
G#|--------------------------------|
E |--------------------------------|
B |--0-2-3------0-4-3-2------------|
F#|--0-2-3--x3--0-4-3-2------------|  
B |--0-2-3------0-4-3-2------------|
PM   . . .      . . . .

Then

                Heavy
C#|--------------------------------|
G#|--------------------------------|
E |--------------------------------|
B |--0-3-5--0-3-6------------------|listen the song
F#|--0-3-5--0-3-6------------------|  
B |--0-3-5--0-3-6------------------|

And finally

C#|--------------------------------------------------------|
G#|--------------------------------------------------------|
E |--------------------------------------------------------|
B |--------------------------------------------------------| listen the song
F#|--------------------------------------------------------|  
B |000000-00 000000-000000-00000--x2--111111111-11-1111111-|


enjoy           

any questions or comments to sk8360casperflip@hotmail.com



Related for Catatonic tab