Guitaretab - guitar tabs
Song name
# A B C D E F G H I J K L M N O P Q R S T U V W X Y Z

Slayer - Skeleton Christ tab

Tuning B


 RIFF 1 INTRO

|KING x1
|---------------------|
|---------------------|
|---------------------|
|---------------------|
|---------------------|
|-0000-0000-0000-0000-|
  .... .... .... ....


|BOTH x3
|---------------------|
|---------------------|
|---------------------|
|---------------------|
|---------------------|
|-0000-0000-0000-0000-|
  .... .... .... ....



 FILL 1

|--------------|
|--------------|
|--------------|
|------5-------|
|------3-------|
|-0000-----5b^-|
  ....



 RIFF 2 VERSE x3

|--------------------------------------------|
|--------------------------------------------|
|--------------------------------------------|
|------------------------------------5-------|
|------------------------------------3-------|
|-0000-0000-0000-0000-0000-0000-0000-----5b^-|
  .... .... .... .... .... .... ....



 RIFF 3 BRIDGE x1

|x2
|-------------------------------------|-------------------------------------|
|-------------------------------------|-------------------------------------|
|-------------------------------------|-------------------------------------|
|-------------------------------------|-------------------------------------|
|-----------3--------6--------5---3---|-----------3--------6--------5---4---|
|-0000-0000-1---0000-4---0000-3---1---|-0000-0000-1---0000-4---0000-3---2---|
  .... ....     ....     ....           .... ....     ....     ....


|-----------|
|-----------|
|-----------|
|-----------|
|-3---------|
|-1---------|




 RIFF 4 CHORUS x4

|------------------------------------------|
|------------------------------------------|
|------------------------------------------|
|---------------------3/4------------------|
|-2--------5/6--------1/2--------5/6---3---|
|-0-000000-3/4-000000-----000000-3/4-0-1---|
    ......     ......     ......     .



 FILL 2

|KING                 S.H. WAH & BAR
|------------------------------------------|
|------------------------------------------|
|------------------------------------------|
|---------------------3//\\\\\\\\\\\\\\\---|
|-2--------5/6-----------------------------|
|-0-000000-3/4-000000----------------------|
|   ......     ......
|
|HANNEMAN
|------------------------------------------|
|------------------------------------------|
|------------------------------------------|
|------------------------------------------|
|-2--------5/6--------9--------------------|
|-0-000000-3/4-000000-7--------------------|
    ......     ......  x



 SOLO 1 KING
   WAH___________       WAH_        WAH N.H. BAR                  WAH & BAR
|---------------------------------///24-24///\\\\/\/\\---------------------|
|-//21b^^^212121b^^^---//21b^^^---------24///\\\\/\/\\/\/\\\/\\------------|
|-----------------------------------------------------------------0//\\\---|
|--------------------------------------------------------------------------|
|--------------------------------------------------------------------------|
|--------------------------------------------------------------------------|

  WAH & BAR/\/\/\/\/\/\/\/\/\/\/\/\/\/\/\/\/\/\/\/\/\/\/\/\/\/\/\/\/\/\/\
|-------------------------------------------------------------------------|
|-------------------------------------------------------------------------|
|-4p3p0h4p3p0h4p3p0h6p4p0h6p4p0h6p4p0h7p6p0h7p6p0h7p6p0h9p7p0h9p7p0h9p7p0-|
|-------------------------------------------------------------------------|
|-------------------------------------------------------------------------|
|-------------------------------------------------------------------------|

  WAH__________________________________________________________________
|-----------------------------------------------------------------------|
|-----------------------------------------------------------------------|
|-13-9h12-13-9h12-14-10h13-14-10h13-15-11h14-15-11h14-16-12h15-16-12h15-|
|-----------------------------------------------------------------------|
|-----------------------------------------------------------------------|
|-----------------------------------------------------------------------|
   T       T       T        T        T        T        T        T
  WAH____________________________________________________________________
|-------------------------------------------------------------------------|
|-------------------------------------------------------------------------|
|-17-13h16-17-13h16-18-14h17-18-14h17-19-15h18-19-15h18-20-16h19-20-16h19-|
|-------------------------------------------------------------------------|
|-------------------------------------------------------------------------|
|-------------------------------------------------------------------------|
   T        T        T        T        T        T        T        T
  WAH______________  WAH_        WAH        WAH      WAH_______
|--------------------------------------------------------------------------|
|------------------------//21b^^^^^---21b^^^^^---21b^^^---21---------------|
|-21-17h20-21-17h20-x///-------------------------------------20b^^^\\\-----|
|--------------------------------------------------------------------------|
|--------------------------------------------------------------------------|
|--------------------------------------------------------------------------|
   T        T



 RIFF 1A x5 UNDER SOLO

|---------------------|
|---------------------|
|---------------------|
|---------------------|
|---------------------|
|-0000-0000-0000-0000-|
  .... .... .... ....



 FILL 1


 RIFF 2 VERSE x3

 RIFF 3 BRIDGE x1

 RIFF 4 CHORUS x4


 RIFF 5 BREAK x2

|-----------------|-----------------|-----------------|-------------------|
|-----------------|-----------------|-----------------|-------------------|
|-----------------|-----------------|-----------------|-------------------|
|-----------------|-----------------|-----------------|-------------------|
|-----------------|-----------------|-----------------|---------------3---|
|-3-1-0-1-4-3-0-1-|-6-4-0-1-4-3-0-1-|-3-1-0-1-4-3-0-1-|-6-4-0-1-4-3-0-1---|
  . . . . . . . .   . . . . . . . .   . . . . . . . .   . . . . . . .



 RIFF 4 CHORUS x4


 RIFF 6 INTERLUDE x1

|x3
|-------------------------------|
|-------------------------------|
|-------------------------------|
|-------------------------------|
|---8-8---7---------------------|
|-0-----0---0-0-0-0-0-0-0-0-0-0-|
  .     .   . . . . . . . . . .


|KING
|-------------------------------|
|-------------------------------|
|-------------------------------|
|-------------------------------|
|---8-8---7---------------------|
|-0-----0---0-0-0-0-x\\\\\\\\\\-|
| .     .   . . . .
|
|HANNEMAN
|-------------------------------|
|-------------------------------|
|-------------------------------|
|-------------------------------|
|---8-8---7---------------------|
|-0-----0---0-0-0-0-0-0-0-0-0-0-|
  .     .   . . . . . . . . . .



 RIFF 6A INTERLUDE x4

|---------------------------------|
|---------------------------------|
|---------------------------------|
|---------------------------------|
|---8-8---7------10-9-----9-8-----|
|-0-----0---0-7-8-----6-7-----6b^-|
  .     .   .



 RIFF 7 BREAK x1

|KING
|---------------------------------|
|---------------------------------|
|---------------------------------|
|-5-5-4-7-7-----------------------|
|-3-3-2-5-5-----------------------|
|-----------0-1-4-3-0-1-4-3-0-1-0-|
|           . . . . . . . . . . .
|
|HANNEMAN
|---------------------------------|
|---------------------------------|
|---------------------------------|
|-5-5-4-7-7-----------------------|
|-3-3-2-5-5-----------------------|
|---------------------------------|
           x


|KING
|---------------------------------|
|---------------------------------|
|---------------------------------|
|-5-5-4-7-7-----------------------|
|-3-3-2-5-5-----------------------|
|-----------0-1-4-3-0-1-4-3-0-1-0-|
|           . . . . . . . . . . .
|
|HANNEMAN
|---------------------------------|
|---------------------------------|
|---------------------------------|
|-5-5-4-7-7-----------------------|
|-3-3-2-5-5-----------------------|
|----------------------16\\\\\\\\-|
           x



 RIFF 6B INTERLUDE x1

|-------------------------------|
|-------------------------------|
|-------------------------------|
|-------------------------------|
|---8-8---7---------------------|
|-0-----0---0-0-0-0-0-0-0-0-0-0-|
  .     .   . . . . . . . . . .


|KING
|-------------------------------|
|-------------------------------|
|-------------------------------|
|-------------------------------|
|---8-8---7---------------------|
|-0-----0---0-0-0-0-x\\\\\\\\\\-|
| .     .   . . . .
|
|HANNEMAN
|-------------------------------|
|-------------------------------|
|-------------------------------|
|-------------------------------|
|---8-8---7---------x\\\\\\\\\\-|
|-0-----0---0-0-0-0-------------|
  .     .   . . . .



 RIFF 6C INTERLUDE x1

|KING
|---------------------------------|
|---------------------------------|
|---------------------------------|
|---------------------------------|
|---8-8---7------10-9-----9-8-----|
|-0-----0---0-7-8-----6-7-----1b^-|
| .     .   .
|
|HANNEMAN
|---------------------------------|
|---------------------------------|
|---------------------------------|
|---------------------------------|
|---8-8---7------10-9-----9-8-----|
|-0-----0---0-7-8-----6-7-----6b^-|
  .     .   .


|KING                         A.H.
|---------------------------------|
|---------------------------------|
|---------------------------------|
|---------------------------------|
|---8-8---7------10-9-----9-8-----|
|-0-----0---0-7-8-----6-7-----1b^-|
| .     .   .
|
|HANNEMAN
|---------------------------------|
|---------------------------------|
|---------------------------------|
|---------------------------------|
|---8-8---7------10-9-----9-8-----|
|-0-----0---0-7-8-----6-7-----6b^-|
  .     .   .


|KING
|---------------------------------|
|---------------------------------|
|---------------------------------|
|---------------------------------|
|---8-8---7------10-9-----9-8-----|
|-0-----0---0-7-8-----6-7-----1b^-|
| .     .   .
|
|HANNEMAN
|---------------------------------|
|---------------------------------|
|---------------------------------|
|---------------------------------|
|---8-8---7------10-9-----9-8-----|
|-0-----0---0-7-8-----6-7-----6b^-|
  .     .   .


|KING
|---------------------------------|
|---------------------------------|
|---------------------------------|
|---------------------------------|
|---8-8---7------10-9-----9-8-----|
|-0-----0---0-7-8-----6-7-----1b^-|
| .     .   .
|
|HANNEMAN
|---------------------------------|
|---------------------------------|
|---------------------------------|
|---------------------------------|
|---8-8---7------10-9-----9-8-----|
|-0-----0---0-7-8-----6-7-----6b^-|
  .     .   .



 RIFF 7A INTO SOLO x1
[ Tab from: http://www.guitaretab.com/s/slayer/80862.html ]
|KING       WAH__________________
|---------------------------------|
|---------------------------------|
|-----------1h4p1h4p1h4p1h4p1h4p1-|
|-5-5-4-7-7-----------------------|
|-3-3-2-5-5-----------------------|
|---------------------------------|
|
|
|HANNEMAN
|---------------------------------|
|---------------------------------|
|---------------------------------|
|-5-5-4-7-7-----------------------|
|-3-3-2-5-5-----------------------|
|-----------0-1-4-3-0-1-4-3-0-1-0-|
            . . . . . . . . . . .


|KING       WAH__________________
|---------------------------------|
|---------------------------------|
|-//////////4h7p4h7p4h7p4h7p4h7p4-|
|---------------------------------|
|---------------------------------|
|---------------------------------|
|
|
|HANNEMAN
|---------------------------------|
|---------------------------------|
|---------------------------------|
|-5-5-4-7-7-----------------------|
|-3-3-2-5-5-----------------------|
|-----------0-1-4-3-0-1-4-3-0-1-0-|
            . . . . . . . . . . .


|KING
|-----------|
|-----------|
|-----------|
|-x\\\\\\\\-|
|-x\\\\\\\\-|
|-----------|
|
|
|HANNEMAN
|-----------|
|-----------|
|-----------|
|-5-5-4-7-7-|
|-3-3-2-5-5-|
|-----------|




 SOLO 2 KING
  WAH_______________________________________________________________________
|----------------------------------------------------------------------------|
|-13h14p13h14p13h14p13h14p13-17-13h14p13h14p13h14p13h14p13-17-13h14-17-13h14-|
|----------------------------------------------------------------------------|
|----------------------------------------------------------------------------|
|----------------------------------------------------------------------------|
|----------------------------------------------------------------------------|
                              T                             T        T
  WAH____________________________________________________________________
|-------------------------------------------------------------------------|
|-17-13h14-17-13h14-18-14h15-18-14h15-19-15h16-19-15h16-20-16h17-20-16h17-|
|-------------------------------------------------------------------------|
|-------------------------------------------------------------------------|
|-------------------------------------------------------------------------|
|-------------------------------------------------------------------------|

  WAH__________________________________________________________
|---------------------------------------------------------------------|
|-21-17h18-21-17h18-22-18h19-22-18h19-23-19h20-23-19h20///24\\\\\-----|
|---------------------------------------------------------------------|
|---------------------------------------------------------------------|
|---------------------------------------------------------------------|
|---------------------------------------------------------------------|
   T        T        T        T        T        T
  WAH___________________________________________ WAH_____   WAH
|--------------------------------------------------------------------|
|------------------------------------------------21fb^^^r---21b^^^---|
|-10-9-12-10-13-12-15-13-16-15-18-16-19-18-21-19---------------------|
|--------------------------------------------------------------------|
|--------------------------------------------------------------------|
|--------------------------------------------------------------------|

  WAH_____   WAH                     N.H. BAR              WAH____
|---------------------//24fb^^^^^r---17////\/\//\/\//\\\---------------|
|-21fb^^^r---21b^^^----------------------------------------x\\\\\\-----|
|----------------------------------------------------------x\\\\\\-----|
|----------------------------------------------------------------------|
|----------------------------------------------------------------------|
|----------------------------------------------------------------------|




 RIFF 7B x4 UNDER SOLO 2

|---------------------------------|
|---------------------------------|
|---------------------------------|
|---------------------------------|
|---------------------------------|
|-3-3-1-4-4-0-1-4-3-0-1-4-3-0-1-0-|
  . . . . . . . . . . . . . . . .



 RIFF 4 CHORUS x5


 RIFF 4B BREAK x1

|---------------------------------------------------------------|
|---------------------------------------------------------------|
|---------------------------------------------------------------|
|---------------------3/4---------------------------------------|
|-2--------5/6--------1/2--------333333333333333333333333333333-|
|-0-000000-3/4-000000-----000000-111111111111111111111111111111-|
    ......     ......     ......



 RIFF 8A INTO OUTRO x1

|KING x7                |x1
|-----------------------|-----------------------|
|-----------------------|-----------------------|
|-----------------------|-----------------------|
|-----------------------|-----------------------|
|-----------------2-----|-----------------------|
|-0---0-0---0-0---0-----|-0---0-0---0-0---6b^^^-|
| .   . .   . .   .x      .   . .   . .
|
|HANNEMAN x7            |x1
|-----------------------|-----------------------|
|-----------------------|-----------------------|
|-----------------------|-----------------------|
|-----------------------|-----------------------|
|-----------------------|-----------------------|
|-----------------------|-----------------6b^^^-|




 RIFF 8 OUTRO x2

|-----------------------|-----------------------|
|-----------------------|-----------------------|
|-----------------------|-----------------------|
|-----------------------|-----------------------|
|-----------------2-----|-----------------2-----|
|-0---0-0---0-0---0-----|-0---0-0---0-0---0-----|
  .   . .   . .   .x      .   . .   . .   .x


|-----------------------|-----------------------|
|-----------------------|-----------------------|
|-----------------------|-----------------------|
|-----------------------|-----------------------|
|-----------------2-----|-----------------------|
|-0---0-0---0-0---0-----|-0---0-0---0-0---6b^^^-|
  .   . .   . .   .x      .   . .   . .



 SOLO 3 HANNEMAN

|-19b^^^---------------19-------------19-19----19-19----19-19----19-21-24b^^^-|
|-20b^^^---20b^^^---20----20b^^^---20-------20-------20-------20--------------|
|-----------------------------------------------------------------------------|
|-----------------------------------------------------------------------------|
|-----------------------------------------------------------------------------|
|-----------------------------------------------------------------------------|

                                         WAH________________________________
|-21-22-24-------------------------------------------------------------------|
|----------24-23-21-23-24-23-21----------------------------------------------|
|-------------------------------24-22-21-19-21-22-18-19-21-16-18-19-15-16-18-|
|----------------------------------------------------------------------------|
|----------------------------------------------------------------------------|
|----------------------------------------------------------------------------|

  WAH      WAH_      WAH & BAR  WAH_      WAH & BAR  WAH_      WAH_
|------------------------------------------------------------------------|
|-17b^^^---/21b^^^---0h3p0h3p0///20b^^^---0h3p0h3p0///15b^^^---/13b^^^---|
|-16b^^^-----------------------------------------------------------------|
|------------------------------------------------------------------------|
|------------------------------------------------------------------------|
|------------------------------------------------------------------------|

  WAH_      WAH          WAH_______________________________________________
|---------------------------------------------------------------------------|
|-/11b^^^---10b^^^^^-----------------------12-14-15----------12-14-15-12-14-|
|------------------------12-13-15-12-13-15----------12-13-15----------------|
|---------------------------------------------------------------------------|
|---------------------------------------------------------------------------|
|---------------------------------------------------------------------------|

  WAH_________________________________________________________________
|----12-13-15-13-12-13-15-13-12-15-13-12-------------------------------|
|-15-------------------------------------15-14-12-14-15-14-12----------|
|-------------------------------------------------------------15-13-12-|
|----------------------------------------------------------------------|
|----------------------------------------------------------------------|
|----------------------------------------------------------------------|

  WAH       WAH_____           WAH_____          WAH_____
|----------///191919-19fb^r---///191919-19fb^---///191919-19b^-19b^---19b^-|
|-14b^^^-------------------------------------------------------------------|
|-13b^^^-------------------------------------------------------------------|
|--------------------------------------------------------------------------|
|--------------------------------------------------------------------------|
|--------------------------------------------------------------------------|

                     WAH_____           WAH_____          WAH_____
|-19b^---19fb^^^r---///191919-19fb^r---///191919-19fb^---///191919-19b^-19b^-|
|----------------------------------------------------------------------------|
|----------------------------------------------------------------------------|
|----------------------------------------------------------------------------|
|----------------------------------------------------------------------------|
|----------------------------------------------------------------------------|


|-19b^---19b^---24fb^^^^^r---24b^^^^^^^^^^\\\\\-----|
|---------------------------------------------------|
|---------------------------------------------------|
|---------------------------------------------------|
|---------------------------------------------------|
|---------------------------------------------------|




 RIFF 8B x6 UNDER SOLO 3

|-----------------------|-----------------------|
|-----------------------|-----------------------|
|-----------------------|-----------------------|
|-----------------------|-----------------------|
|-----------------3-----|-----------------6-----|
|-0---0-0---0-0---1-----|-0---0-0---0-0---4-----|
  .   . .   . .           .   . .   . .


|---------------------------------------|
|---------------------------------------|
|---------------------------------------|
|---------------------------------------|
|-----------------5-------5-------3-----|
|-0---0-0---0-0---3-----0-3-----0-1-----|
  .   . .   . .         .       .



 FILL 3 END

|-----------------------|
|-----------------------|
|-----------------------|
|-----------------------|
|-----------------2-----|
|-0---0-0---0-0---0-----|
  .   . .   . .   .x

Related for Skeleton Christ tab
Advertisement will be closed in 10 seconds