Song name
# A B C D E F G H I J K L M N O P Q R S T U V W X Y Z

Sleater-kinney - Modern Girl tab

                            intro

e---------------------------------------------------------------------------|
b---------------------------------------------------------------------3--3--|
g---7----7----7---7---7---7---7---7------4---4----6----6-----4---4----2--2--|
d-0---0----0----0---9---9---8---8------5---5----7---7------5---5----0--0----|
a---------------------------------------------------------------------------|
e---------------------------------------------------------------------------|


e---------------------------------------------------------------------------|
b---------------------------------------------------------------------3--3--|
g---7----7----7---7---7---7---7---7------4---4----6----6-----4---4----2--2--|
d-0---0----0----0---9---9---8---8------5---5----7---7------5---5----0--0----|
a---------------------------------------------------------------------------|
e---------------------------------------------------------------------------|

----------------------------------------------------------------------------|
--5-5-5-5/---7-7-7-7--3-3-3-3-x-3-3--5-5-5-5/--7-7-7-7---3-3-3-3-x-3-3------|
--4-4-4-4/---6-6-6-6--2-2-2-2-x-2-2--4-4-4-4/--6-6-6-6---2-2-2-2-x-2-2------|
--5-5-5-5/---7-7-7-7-----------------5-5-5-5/--7-7-7-7----------------------|
----------------------------------------------------------------------------|
----------------------------------------------------------------------------|

----------------------'
--5-5-5-5/---7-7-7-7--'
--4-4-4-4/---6-6-6-6--' *long intro...*
--5-5-5-5/---7-7-7-7--'
----------------------'
----------------------'
>>>>>>>>>>>>>>>>>>>>>>>>>>>>>>>>>>>>>>>>>>>>>>>>>>>>>>>>>>>>>>>>>>>>>>>>>>>>

                            (verse)


my baby loves me,   i'm so,    happy,  happy makes me, a  modern  girl
---------------------------------------------------------------------------|
--------------------5-5-5-5/--7-7-7-7------------------5-5-5-5/7-7-7-7-----|
---7---7---7---7----4-4-4-4/--6-6-6-6----7--7--7--7----4-4-4-4/6-6-6-6-----|
-0---0---0---0------5-5-5-5/--7-7-7-7--0--0--0--0------5-5-5-5/7-7-7-7-----|
---------------------------------------------------------------------------|
---------------------------------------------------------------------------|

 took my money     and bought, a tv,   tv brings me,  closer to the world
--------------------------------------------------------------------------'
--------------------5-5-5-5/--7-7-7-7------------------5-5-5-5/-7-7-7-7---'
---7---7---7---7----4-4-4-4/--6-6-6-6----7--7--7--7----4-4-4-4/-6-6-6-6---'
-0---0---0---0------5-5-5-5/--7-7-7-7--0--0--0--0------5-5-5-5/-7-7-7-7---'
--------------------------------------------------------------------------'
--------------------------------------------------------------------------'

                   *say life right at the9*
  my      whole     'life                 look like picture of a sunny day
e-------------------'--------------------------------------------------|
b-------------------'--------------------------------------------------|
g---7----7----7---7-'---7---7---7---7------4---4----6----6-----4---4---|(2x)
d-0---0----0----0---'-9---9---8---8------5---5----7---7------5---5-----|
a-------------------'--------------------------------------------------|
e-------------------'--------------------------------------------------|


then the intro as the bridge

e---------------------------------------------------------------------------|
b---------------------------------------------------------------------3--3--|
g---7----7----7---7---7---7---7---7------4---4----6----6-----4---4----2--2--|
d-0---0----0----0---9---9---8---8------5---5----7---7------5---5----0--0----|
a---------------------------------------------------------------------------|
e---------------------------------------------------------------------------|


e---------------------------------------------------------------------------|
b---------------------------------------------------------------------3--3--|
g---7----7----7---7---7---7---7---7------4---4----6----6-----4---4----2--2--|
d-0---0----0----0---9---9---8---8------5---5----7---7------5---5----0--0----|
a---------------------------------------------------------------------------|
e---------------------------------------------------------------------------|

----------------------------------------------------------------------------|
--5-5-5-5/---7-7-7-7--3-3-3-3-x-3-3--5-5-5-5/--7-7-7-7---3-3-3-3-x-3-3------|
--4-4-4-4/---6-6-6-6--2-2-2-2-x-2-2--4-4-4-4/--6-6-6-6---2-2-2-2-x-2-2------|
--5-5-5-5/---7-7-7-7-----------------5-5-5-5/--7-7-7-7----------------------|
----------------------------------------------------------------------------|
----------------------------------------------------------------------------|

----------------------'
--5-5-5-5/---7-7-7-7--'
--4-4-4-4/---6-6-6-6--'
--5-5-5-5/---7-7-7-7--'
----------------------'
----------------------'

repete as tabbed for the next 2 verses
but at the end sing chorus 4x and end with,

----------|
----------|
-7--------|
-0--------|
----------|
----------|

give it one good down stroke and let it ring...

here are the other verses

my baby loves me
i'm so hungry,hunger makes me a modern girl
took my money and a doughnut
the hole is the size of,the entire world
*my whole life is like a picture of a sunny day*
babby loves my i'm so angry
anger makes me a modern girl,took my money
i couldn't buy nothing
i'm sick of this brave new world
*my whole life look like a picture of a sunny day*
Tap to rate this tab
 
# A B C D E F G H I J K L M N O P Q R S T U V W X Y Z