Song name
# A B C D E F G H I J K L M N O P Q R S T U V W X Y Z

Sleater-kinney - Heart Attack tab

verse-rhythm
---------------------------------------|
---------------------------------------|
---------------------------------------|
---------------------------------------|
---2-----2-------2---------------------|
-----4-4---2-2-2---0-0-0-0-0-0-0-0/2---|


verse-lead parts
---------------------------------------------|
-------12-----11--0------0------0------0-----|
-----8------8------8------8------8------8----|
---9------9---------11-----11-----11-----11--|
---------------------------------------------|
---------------------------------------------|

-----------------------------------      --------------------------------|
--0---11-0------0---12-0-----------      ------11-0------------12-0------|
----8------8------8------8---------      ----8------8--------8------8----|
-------------11------------11------  OR  --9----------11---9----------11-|
-----------------------------------      --------------------------------|
-----------------------------------      --------------------------------|

-------------------------------|
------0-----0------7---7---7---|
--------8----------------------|
----9-----9---11-9---9---9-----|  ( not 100% sure about this one )
-------------------------------|
-------------------------------|


Bridge
-----------------------------------------------------------------------|
-----------------------------------------------------------------------|
---4-4-3-4--4-4-3-4--6-6-6--9-9-9-9-9----------------------------------|
---4-4-4-4--4-4-4-4--6-6-6--9-9-9-9-9----------------------------------|
---2-2-2-2--2-2-2-2--4-4-4--7-7-7-7-7----------------------------------|
-----------------------------------------------------------------------|


LOOOOOOKIIIINNNGGGG!!!!
----------6-6-6-7-6-6---         --6-6-6-7-6-6--|
---4------6-6-6-6-6-6---         --5-5-5-5-5-5--|
---4--------------------         ---------------|
---4------6-6-6-6-6-6---   OR    --6-6-6-6-6-6--|
---2------4-4-4-4-4-4---         --4-4-4-4-4-4--|
------------------------         ---------------|


play this after each of the last two verse riffs
-----------------------------|
-----------------------------|
-----------------------------|
-----13----13----13-----13---|
-----------------------------|
--12----12----12-----12------|
Tap to rate this tab
 
# A B C D E F G H I J K L M N O P Q R S T U V W X Y Z