Guitaretab - guitar tabs
Song name
# A B C D E F G H I J K L M N O P Q R S T U V W X Y Z

Sleater-kinney - Be Yr Mama tab

Sleater-Kinney
Be yr mama
                            
Tuning 'D G C f a d'
                                                                               
(1 and 2 mean different guitars)
       
     ---------------------------------------------------------------------
     ---------------------------------------------------------------------
  1  --------------------------5----7-----------------------------5----7--
     -0----0----0----0----0--------------0----0----0----0----0------------
     ---------------------------------------------------------------------
     ---------------------------------------------------------------------
     
       * Guitar 2 is not played the first time through
     ---------------------------------------------------------------------
     ---------------------------------------------------------------------
  2  ---------------------------------------------------------------------
     --7---7---7---7---7---7---7---7------7---7---7---7---7---7---7---7---
     --5---5---5---5---5---5---5---5------5---5---5---5---5---5---5---5---
     ---------------------------------------------------------------------



      (In the following section, after the vocals have started, Guitar 1
      changes every two times through.  Rather then waste space by notating
      it unabridged, I have shown the other two changes right below this 
      section)
     ---------------------------------------------------------------------
     -------------------------5---------------------------------5---------
  1  ---4----4----4-----0----------4------4----4----4-----0----------4----
     ---------------------------------------------------------------------
     ---------------------------------------------------------------------
     ---------------------------------------------------------------------
     
     
     ---------------------------------------------------------------------
     ---------------------------------------------------------------------
  2  ---------------------------------------------------------------------
     ---4----4----4-----9-----9---9-------4----4----4-----9-----9---9-----
     ---2----2----2-----7-----7---7-------2----2----2-----7-----7---7-----
     -------------------0-----0---0-----------------------0-----0---0-----



                       sl              (2)                     
              -------------------------------------------------- 
              ------5-//-7---7--7---5---7--7--8--8--------------
              --4------------------------------------7--7--5--5-
              --------------------------------------------------
              --------------------------------------------------
              --------------------------------------------------




                                       (3)     
              ------------------------------------------------- 
              --5--5-----------5--5----------------------------
              --------4--0-----------4--0----4--4--4--0--4--4--
              -------------------------------------------------
              -------------------------------------------------
              -------------------------------------------------



[ Tab from: http://www.guitaretab.com/s/sleater-kinney/31760.html ]
        I know  what  is going  on here.......
     ---------------------------------------------------------------------
     ---------------------------------------------------------------------
  1  ------7-------7--7---4---5---4----------7-------7---4--4--5--5--4----
     --5-------5---------------------5---5-------5----------------------5-
     ---------------------------------------------------------------------
     ---------------------------------------------------------------------
     
     
     ---------------------------------------------------------------------
     ---------------------------------------------------------------------
  2  ---------------------------------------------------------------------
     --2---2---2---2----5---5---5---5-----2---2---2---2----5---5---5---5--
     --0---0---0---0----3---3---3---3-----0---0---0---0----3---3---3---3--
     ---------------------------------------------------------------------
                                                 (repeat from beg. of song)




          sl                                                          sl
     ---------------------------------------------------------------------
     --5-//-7------------7--7-------------7--7------------7--7----7-\\-5--
  1  ---------------------------------------------------------------------
     ---------------------------------------------------------------------
     ---------------------------------------------------------------------
     ---------------------------------------------------------------------
     
     
     ---------------------------------------------------------------------
     ---------------------------------------------------------------------
  2  ---------------------------------------------------------------------
     --7---7---7---7---7---7---7---7------7---7---7---7---7---7---7---7---
     --5---5---5---5---5---5---5---5------5---5---5---5---5---5---5---5---
     ---------------------------------------------------------------------




          sl                                Just a little more...     sl
     ---------------------------------------------------------------------
     --5-//-7------------7--7-------------7--7------------7--7----7-\\-5--
  1  ---------------------------------------------------------------------
     ---------------------------------------------------------------------
     ---------------------------------------------------------------------
     ---------------------------------------------------------------------
     
     
     ---------------------------------------------------------------------
     ---------------------------------------------------------------------
  2  ---------------------------------------------------------------------
     -11--11--11--11--11--11--11--11-----11--11--11--11--11--11--11--11---
     --9---9---9---9---9---9---9---9------9---9---9---9---9---9---9---9---
     ---------------------------------------------------------------------
      (As this section progresses, there are minor picking changes made by
      guitar 1.  Also, towards the end of this section, guitar 1 does the 
      slides more often.  As always, listen to the song for details.)



      Repeat all over again
Related for Be Yr Mama tab