Song name
# A B C D E F G H I J K L M N O P Q R S T U V W X Y Z

Sleater Kinney - Modern Girl tab

-------------------------------------------------------------------------------
                             Modern Girl - Sleater Kinney
-------------------------------------------------------------------------------
Tabbed by: Justin Ballew
E-mail: justinballew@gmail.com

Tuning: standard

e|-----------------------------------------------------------------------------|
B|-----------------------------------------------------------------------------|
G|--4-4-4-4---4-4-4-4---3-3-1-1-3-3---44x4-44----------------------------------|
D|-------------------------------------44x4-44---------------------------------|
A|-2-2-2-2-----------------------------22x2-22---------------------------------|
E|-----------4-4-3-3----2-2-0-0-2-2--------------------------------------------|

e|---------------------------------------------------------------------------|
B|---------------------------------------------------------------------------|
G|---6666----8888----4444----------------------------------------------------|
D|---6666----8888----4444----------------------------------------------------|
A|---4444----6666----2222----------------------------------------------------|
E|---------------------------------------------------------------------------|

e|------------------------------------------------------------------------------|
B|------------------------------------------------------------------------------|
G|---4-4-4-4------6666----8888--------------------------------------------------|
D|----------------6666-----8888-------------------------------------------------|
A|-2-2-2-2--------4444-----6666-------------------------------------------------|
E|------------------------------------------------------------------------------|

e|---------------------------------------------------------------------------|
B|---------------------------------------------------------------------------|
G|--4-4-4-4-----4-4-4-4--1-1-1-1----3-3-3-3----------------------------------|
D|---------------------------------------------------------------------------|
A|-2-2-2-2-------------------------------------------------------------------|
E|-------------4-4-4-4---0-0-0-0----2-2-2-2----------------------------------|

e|-------------------------------------------------------------------------------|
B|-------------------------------------------------------------------------------|
G|--44444444-----44444444-----------------444666---------------------------------|
D|--44444444-----44444444----44444444----444666----------------------------------|
A|--22222222-----------------44444444-----222444---------------------------------|
E|----------------44444444---22222222--------------------------------------------|

These are all the parts for the lead guitar tabbed to standard tuning.
Most tabs were for a guitar tuned down 3 1/2 steps, which Sleater Kinney actually uses, 
but I made it so you can play in standard tuning.


************************************

| /   slide up
| \   slide down
| h   hammer-on
| p   pull-off
| ~   vibrato
| +   harmonic
| x   Mute note
| b   Bend
| pb  Pre-bend
| br  Bend release
| pbr Pre-bend release
| brb Bend release bend

************************************
Tap to rate this tab
# A B C D E F G H I J K L M N O P Q R S T U V W X Y Z