Song name
# A B C D E F G H I J K L M N O P Q R S T U V W X Y Z

Sleep Parade - Everyday tab

---------------------------------------------------------------
	            Everyday - Sleep Parade
----------------------------------------------------------------
Tabbed by: Kristyn Lee
Email: spot_the_village_loony_836@hotmail.com

http://www.myspace.com/sleepparade

Tuning: Drop C

I tabbed this from youtube, i don't have an mp3 of the song.
If anybody can send it to me that'd be great.

Intro/verse
D|---------------------------------------|\
A|-----5------3------6-----5------5p3----| \
F|---------------------------------------|  \
C|---------------------------------------|   \
G|--0-----0------0------0-----0----------|    \
C|---------------------------------------|     \
                                                \
D|---------------------------------------|       \
A|-----5------3------6-----5------5p3----|        \
F|---------------------------------------|         \
C|---------------------------------------|          \ 
G|--0-----0------0------0-----0----------|           \
C|---------------------------------------|            \
                                                       | play x 4
D|---------------------------------------|            /        
A|-----5------3------6/8-----5------5p3--|           /
F|---------------------------------------|          /
C|---------------------------------------|         /
G|--0-----0------0--------0-----0--------|        /
C|---------------------------------------|       /
                                                /
D|---------------------------------------|     / 
A|------5-----3-----6-----5--------------|    /
F|------4-----2-----5-----4-4^-----------|   /
C|---------------------------------------|  /
G|--0------0-----0-----0-----------------| /
C|---------------------------------------|/


D|----------------------------|
A|----------------------------|
F|----------------------------|
C|----------------------------|
G|--777-33333333-55555555-----|
C|--777-33333333-55555555-----|
    ... ........ ........
chorus
D|--------------------------------|
A|----5-----5----5----5-----------|
F|----5-----5----5----5-----------|
C|--3~---3~---3~---3~----5--------|
G|--3~---3~---3~---3~----5--------|
C|--3~---3~---3~---3~----5--------|

adding the rest soon. 


| /  slide up
| \  slide down
| h  hammer-on
| p  pull-off
| ~  vibrato
| +  harmonic
| x  Mute note
===============================================================
Tap to rate this tab
 
# A B C D E F G H I J K L M N O P Q R S T U V W X Y Z