Song name
# A B C D E F G H I J K L M N O P Q R S T U V W X Y Z

Sleep - The Druid tab

Tuning is C 
C,F,A#,D#,G,C
|-------------------------------------------------|
|-------------------------------------------------|
|-------------------------------------------7s9-7-|
|----9--7--9-----9--9--7--7--9-----9--7--9--5s7-5-|
|----7--5--7-----7--7--5--5--7-----7--5--7--------|
|-00----------00----------------00----------------|
  pm          pm                pm               
|-------------------------------------------------|
|-------------------------------------------------|
|-------------------------------------------------|
|----9--7--9-----9--9--7--7--9-----9--7--9--------|
|----7--5--7-----7--7--5--5--7-----7--5--7--7--8--|
|-00----------00----------------00----------5--6--|
  pm          pm                pm              

Enjoy.
Tap to rate this tab
 
# A B C D E F G H I J K L M N O P Q R S T U V W X Y Z