Song name
# A B C D E F G H I J K L M N O P Q R S T U V W X Y Z

Sleep - Dragonaut tab

-------------------------------------------------------------------------
                             DRAGONAUT - Sleep
-------------------------------------------------------------------------

Tuning: C Standard - C-F-A#-D#-G-c (C-F-Bb-Eb-G-c)
  
I know some of the other tabs have 3-0 on the F (A) string, but it is a lot easier 
to play this way.
The other tab is good, but just a few mistakes I thought I'd correct.
Enjoy :)


 c|---------------------------------------------|
 G|---------------------------------------------|   
D#|-----------5---------------------------------|
A#|-----5h7-----7-5---5-7-----5h7-------5---5-7-|
 F|---0-----0-------7-------0-----0-5-7---7-----|
 C|-8---------------------8---------------------|

 c|-------------------------------------|
 G|-------------------------------------|
D#|-------------------------------------|
A#|-------------------------------9-8-7-| 
 F|-7-7-7-7-7-75-78-75-7-7-7-7-7--9-8-7-|
 C|-0-0-0-0-0-00-00-00-0-0-0-0-0--7-6-5-|
    * * * * * ** ** ** * * * * *

 c|-------------------------------------|
 G|-------------------------------------|
D#|-------------------------------------|
A#|-------------------------------5-----|
 F|-----7---5---7---5---7-------5---7-5-|
 C|-0-0---0---0---0---0---0-5-7---------|
    * *   *   *   *   *   *

 c|-----------------------------------------|
 G|-----------------------------------------|
D#|-----------------------------------------|
A#|----------------------------5------------|
 F|-----7---5---7-------5-7-5----7-5---5-7--|
 C|-0-0---0---0---0-5-7-------7------7------|
    * *   *   *   *

 c|-------------------------------------|
 G|-------------------------------------|
D#|-------------------------------------|
A#|-------------------------------------|
 F|-----7---5---7---5---7---------------|
 C|-0-0---0---0---0---0---0-5-6-5-3-5-3-|
    * *   *   *   *   *   *

 c|-----------------------------------------|
 G|-----------------------------------------|
D#|-----------------------------------------|
A#|----------------------------5------------|
 F|-----7---5---7-------5-7-5----7-5---5-7--|
 C|-0-0---0---0---0-5-7-------7------7------|
    * *   *   *   *
 
Key
----
* palm mute
h hammer on
Tap to rate this tab
# A B C D E F G H I J K L M N O P Q R S T U V W X Y Z