Song name
# A B C D E F G H I J K L M N O P Q R S T U V W X Y Z

Sleep - Dragonaut tab

Sleep's Holy Mountain is the second studio album by the American Stoner Doom metal band Sleep. 



Tuning: C Standard - C-F-A#-D#-G-C (C-F-Bb-Eb-G-C)

(Intro)
----------|--------------------------|---------------------------||
----------|--------------------------|---------------------------||
----------|------5-------------------|---------------------------||
----------|--5-7---7--5---5--7-------|---5-7------5---5--7-------||
----------|-------------7------------|--------5-7---7------------||
----8(1/4)|-5---5--------------8(1/4)|--5---5--------------8(1/4)||

(Verse) 
----------|------------------------||
----------|------------------------||
----------|------------------------||
----------|-----------------9-8-7--||
--7-7-7-7-|5-7-5-7-5-7-5-7---------||
-(0)------|------------------------||

Key
(1/4) quarter step bend
(0) Drone note/optional

Intro and abit of the verse 
Tap to rate this tab
# A B C D E F G H I J K L M N O P Q R S T U V W X Y Z