Song name
# A B C D E F G H I J K L M N O P Q R S T U V W X Y Z

Sleep - Sonic Titan tab

Sleep - "Sonic Titan"
From the album "Dopesmoker" (2003)
Tab by matt062286 (2/19/2014 v2)

This tab is based on the live version played at Hellfest 2013

C Tuning (C F Bb Eb G C)


PART 1:

C |-----------------------------------------------------|
G |-----------------------------------------------------|
Eb|-----------------------------------------------------|
Bb|----9--9--9--9--9--9--9--9~~-----/9----7---/9~~------|
F |----7--7--7--7--7--7--7--7~~-----/7----5---/7~~------|
C |----0--0--0--0--0--0--0-------(0)--------------------|x4


C |-----------------------------------------------------|
G |-----------------------------------------------------|
Eb|-----------------------------------------------------|
Bb|-----------------------------------------------------|
F |----8--8--8--8--8--8--8--8~~------8----6---/8~~------|
C |----6--6--6--6--6--6--6--6~~------6----4---/6~~------|x2


C |-----------------------------------------------------|
G |-----------------------------------------------------|
Eb|-----------------------------------------------------|
Bb|----9--9--9--9--9--9--9--9~~-----/9----7---/9~~------|
F |----7--7--7--7--7--7--7--7~~-----/7----5---/7~~------|
C |----0--0--0--0--0--0--0-------(0)--------------------|x6


C |-----------------------------------------------------|
G |-----------------------------------------------------|
Eb|-----------------------------------------------------|
Bb|----9--9--9--9--9--9--9--9~~-------------------------|
F |----7--7--7--7--7--7--7--7~~-------------------------|
C |----0--0--0--0--0--0--0--0---------------------------|x1
      Each iteration here is played slower



PART 2:

C |-----------------------------------------------------|
G |-----------------------------------------------------|
Eb|-----------------------------------------------------|
Bb|-----------------------------------------------------|
F |----7------------7----5--7----7----7----5h7----------|
C |----0--------(0)-0----0--0----0----0----0------------| 
                                                       
C |----------------------------------------------------------------|    
G |----------------------------------------------------------------|
Eb|----------------------------------------------------------------|
Bb|----------------------------------------------------------------|
F |-------5h7--7----5--7----7---------5~~--------------------------|
C |-0-(0)-0----0----0--0----0----7---------7(p6h7p6h7p6h7p6h7p)----|x6

                                    

PART 3:

C |------------------------------------------------------------------------------------------------|
G |------------------------------------------------------------------------------------------------|
Eb|---------------------0----3b~~---------2----0-------------------------0----2----2----2----0-----|
Bb|--------2----0--2------------------------------2---------2----0--2---------------------------2--|
F |------------------------------------------------------------------------------------------------|
C |---0------------------------------------------------0-------------------------------------------|x4



PART 4:

C |-----------------------------------------------------|
G |-----------------------------------------------------|
Eb|-----------------------------------------------------|
Bb|-----------------------------------------------------|
F |----7------------7----5--7----7----7----5h7----------|
C |----0--------(0)-0----0--0----0----0----0------------| 
                                                       
C |----------------------------------------------------------------|    
G |----------------------------------------------------------------|
Eb|----------------------------------------------------------------|
Bb|----------------------------------------------------------------|
F |-------5h7--7----5--7----7---------5~~--------------------------|
C |-0-(0)-0----0----0--0----0----7---------6(h7p6h7p6h7p6h7p)------|x4


PART 5:

C |------------------------------------------------------------------------------------------------|
G |------------------------------------------------------------------------------------------------|
Eb|---------------------0----3b~~---------2----0-------------------------0----2----2----2----0-----|
Bb|--------2----0--2------------------------------2---------2----0--2---------------------------2--|
F |------------------------------------------------------------------------------------------------|
C |---0------------------------------------------------0-------------------------------------------|x4


VERSE PART 1:

C |--------------------------------------------------------------|
G |--------------------------------------------------------------|
Eb|--------------------------------------------------------------|
Bb|--------------------------------------------------------------|
F |----2---2---2---5------7---5---7---8-------8---7------5~~-----|
C |----0---0---0---3------5---3---5---6-------6---5------3~~-----|


C |--------------------------------------------------------------|
G |--------------------------------------------------------------|
Eb|--------------------------------------------------------------|
Bb|---------------------------------------------------------7b---|
F |----2---2---2---5------7---5---7---8---7---5---2---------5b---|
C |----0---0---0---3------5---3---5---6---5---3---0--------------|x4


VERSE PART 2:

C |--------------------------------------------------------------|
G |--------------------------------------------------------------|
Eb|--------------------------------------------------------------|
Bb|--------------------------------------------------------------|
F |----2---2---2---5------7---5---7---8-------8---7------5~~-----|
C |----0---0---0---3------5---3---5---6-------6---5------3~~-----|

C |--------------------------------------------------------------|
G |--------------------------------------------------------------|
Eb|--------------------------------------------------------------|
Bb|---------------------------------------------------------7b---|
F |----2---2---2---5------7---5---7---8-------8---7---------5b---|
C |----0---0---0---3------5---3---5---6-------6---5--------------|

C |--------------------------------------------------------------|
G |--------------------------------------------------------------|
Eb|--------------------------------------------------------------|
Bb|--------------------------------------------------------------|
F |----2---2---2---5------7---5---7---8-------8---7------5~~-----|
C |----0---0---0---3------5---3---5---6-------6---5------3~~-----|


C |--------------------------------------------------------------|
G |--------------------------------------------------------------|
Eb|--------------------------------------------------------------|
Bb|---------------------------------------------------------7b---|
F |----2---2---2---5------7---5---7---8---7---5---2---------5b---|
C |----0---0---0---3------5---3---5---6---5---3---0--------------|x2



OUTRO (PLAY 4x):

C |------------------------------------------|
G |------------------------------------------|
Eb|------------------------------------------|
Bb|------------------------------------------|
F |-----/14-------14-------14-------14\------|    
C |---0-/12----0--12----0--12----0--12\------|x3

C |------------------------------------------|
G |------------------------------------------|
Eb|------------------------------------------|
Bb|------------------------------------------|
F |------18-------17-------15-------12-------|
C |------16-------15-------13-------10-------|x1



SOLO (UNTABBED)


OUTRO (PLAY 4x):

C |------------------------------------------|
G |------------------------------------------|
Eb|------------------------------------------|
Bb|------------------------------------------|
F |-----/14-------14-------14-------14\------|    
C |---0-/12----0--12----0--12----0--12\------|x3

C |------------------------------------------|
G |------------------------------------------|
Eb|------------------------------------------|
Bb|------------------------------------------|
F |------18-------17-------15-------12-------|
C |------16-------15-------13-------10-------|x1
Tap to rate this tab
 
# A B C D E F G H I J K L M N O P Q R S T U V W X Y Z