Song name
# A B C D E F G H I J K L M N O P Q R S T U V W X Y Z

Sleeper Agent - Get Burned tab

Intro/Chorus
Guitar 1
e-7-7-7--77-77777-7-7-7--7-7-66666--7-7-7--77-77777-7-7-7-------------|
b-7-7-7--77-77777-7-7-7--9-9-77777--7-7-7--77-77777-7-7-7-11-11-77777-|
g-8-8-8--88-88888-8-8-8--8-8-66666--8-8-8--88-88888-8-8-8-11-11-88888-|
d-9-9-9--99-99999-9-9-9--9-9-88888--9-9-9--99-99999-9-9-9-11-11-99999-|
a----------------------------------------------------------9--9-99999-|
e---------------------------------------------------------------------|

Guitar 2
e----------------------------|
b----------------------------|
g-11-11-11--1111-11-1111-777-|
d--x--x--x---x-x--x--x-x-xxx-|
a--9--9--9---9-9--9--9-9-555-|
e----------------------------|

Verse
Guitar 1
Part 1
e-----------------------|      |-----------------------|
b-----------------------|    T |-----------------------|
g-----------------------|3x  h |-----------------------|
d-----------------------|    e |------------------9----|
a-9-11-9-11-9-9-11-9-11-|    n |-9-11-9-11-9-9-11---11-|
e-----------------------|      |-----------------------|

Part 2
e-----------------------|      |----------------------------------------------|
b-----------------------|    T |----------------------------------------------|
g-----------------------|2x  h |----------------------------------------------|
d-----------------------|    e |------------------9---------------------------|
a-9-11-9-11-9-9-11-9-11-|    n |-9-11-9-11-9-9-11---11--9-11-9-11-9-9-11-9-11-|
e-----------------------|      |----------------------------------------------|

Guitar 2
e---------------------------------|
b---------------------------------|
g-9~--9~--9~--9~--8~--8~--8~--8~--|
d-9~--9~--9~--9~--9~--9~--9~--9~--|
a-7~--7~--7~--7~--9~--9~--9~--9~--|
e-0~--0~--0~--0~--7~--7~--7~--7~--|

Bridge
e-------------------------------------|
b-------------------------------------|
g-8~----9~----8~----9~----8~----9~----|
d-9~----9~----9~----9~----9~----9~----|
a-9~----7~----9~----7~----9~----7~----|
e-7~----0~----7~----0~----7~----0~----|

Outro
e---------------------------------|
b---------------------------------|
g-9~--9~--9~--9~--8~--8~--8~--8~--|
d-9~--9~--9~--9~--9~--9~--9~--9~--|
a-7~--7~--7~--7~--9~--9~--9~--9~--|
e-0~--0~--0~--0~--7~--7~--7~--7~--|
Tap to rate this tab
# A B C D E F G H I J K L M N O P Q R S T U V W X Y Z