Song name
# A B C D E F G H I J K L M N O P Q R S T U V W X Y Z

Sleeper Agent - Love Blood tab

Yo guys. My first tab. I played this version with my friends and it sounds correct. 
Lem'me know what you think in the comments or whatever. Thanks.

Standard Tuning

Intro

              You need to find new ties...
E -------------------------------------------|
B -------------------------------------------|
G -------------------------------------------|    x4
D -------------------------------------------|
A ----7-7--7--------------------7-7--11/7----|
E ------------5-5--5---7-7--7----------------|

Chorus

   ...Our love, keeps our bodies moving on, keeps us singing...
E -------------------------------------------------------------------------|
B -------------------------------------------------------------------------|
G -------------------------------------------------------------------------|
D --------------------------------------9-9-9-9-9-9-9-9-9-9-9-9-9-9-9-9----|
A ----7-7-7-7-7-7-7-7-7-7-7-7-7-7-7-7---7-7-7-7-7-7-7-7-7-7-7-7-7-7-7-7----|
E ----5-5-5-5-5-5-5-5-5-5-5-5-5-5-5-5--------------------------------------|

to
   ...monotone, keeps our love blood...
E -------------------------------------------------------|
B -------------------------------------------------------|
G -------------------------------------------------------|
D ----11-11-11-11-11-11-11-11-11-11-11-11-11-11-11-11----|
A ----9--9--9--9--9--9--9--9--9--9--9--9--9--9--9--9-----|
E -------------------------------------------------------|

to
   ...flooooooooooooooow.
E --------------------------|
B --------------------------|
G --------------------------|
D ---------------------9----|
A ----9-9-9-9-9-9-9-9--7----|
E ----7-7h9p7-7h9p7-7-------|

Verse

      I keep my legs restless...
E -------------5-5--5---7-7--7----------------|
B -------------5-5--5---7-7--7----------------|
G -------------6-6--6---8-8--8----------------|    x4
D ----9-9--9---7-7--7---9-9--9---9-9--13/9----|
A ----7-7--7---7-7--7---9-9--9---7-7--11/7----|
E -------------5-5--5---7-7--7----------------|

Chorus x2
(except do this part twice at the end, as well as the last chorus)
E --------------------------|
B --------------------------|
G --------------------------|
D ---------------------9----|
A ----9-9-9-9-9-9-9-9--7----|
E ----7-7h9p7-7h9p7-7-------|

Bridge

      Don't care about your new tattoo, Just wanna ink beneath your tissue...
E -------------------------------------------------------------------------|
B -------------------------------------------------------------------------|
G -------------------------------------------------------------------------|
D -------------------------------------------------------------------------|
A ----7-7-7-7-7-7-7-7-7-7-7-7-7-7-7-7---9-9-9-9-9-9-9-9-9-9-9-9-9-9-9-9----|
E ----5-5-5-5-5-5-5-5-5-5-5-5-5-5-5-5---7-7-7-7-7-7-7-7-7-7-7-7-7-7-7-7----|

to

      A simple speed...         ...who said our love...
E ----------------------------------------------------|
B ----------------------------------------------------|
G ----------------------------------------------------|
D --------------------------------------13--13--11----|
A ----7-7-7-7-7-7-7-7-7-7-7-7-7-7-7-7---11--11--9-----|
E ----5-5-5-5-5-5-5-5-5-5-5-5-5-5-5-5-----------------|

to
      Bliiiiiiiiiiiiiiiiiiiiiiiiiiiiiiiiiiiiiiiiiiiii
E -------------------------------------------------------|
B -------------------------------------------------------|
G -------------------------------------------------------|
D -------------------------------------------------------|
A ----11-11-11-11-11-11-11-11-11-11-11-11-11-11-11-11----|
E ----9--9--9--9--9--9--9--9--9--9--9--9--9--9--9--9-----|

to
      iiiiiiiiiiiiiiiiiiiiiiiiiiiiiiiiind.
E -------------------------------------------|
B -------------------------------------------|
G -------------------------------------------|
D -------------------------------------------|
A ----13-13-13-13-13-13-13-13-13-13-13-13----|
E ----11-11-11-11-11-11-11-11-11-11-11-11----|

Chorus x2

End
Tap to rate this tab
# A B C D E F G H I J K L M N O P Q R S T U V W X Y Z