Song name
# A B C D E F G H I J K L M N O P Q R S T U V W X Y Z

Sleeping At Last - Turning Page tab

Sleeping At Last
Turning Page

Standard Tuning
Capo on 3rd fret

Here's a picking pattern you can mess around with.
This is just the intro but it could work for the verses too (partly).

First Part:

      C Chord
e|--------------------|
B|--------1---0-------|
G|-----0----0-----0---| x2
D|--------------2-----|
A|--3-----------------|
E|--------------------|

            F Chord
e|-----0------------------0--3--------|
B|---------3-------------------1-0----|
G|-------------0-------------------0--|
D|--3----3---3---3-----3--------------|
A|------------------------------------|
E|1-----------------1-----------------|

Second Part:

       C Chord
e|--------------------|
B|--------1---0-------|
G|-----0----0-----0---| x2
D|--------------2-----|
A|--3-----------------|
E|--------------------|

             F Chord
e|-----0------------------0-3---0-------|
B|---------3------------------3---0-1---|
G|-------------0------------------------|
D|--3----3---3---3-----3----------------|
A|--------------------------------------|
E|1-----------------1-------------------|

And there you go :) Try it out and tell me what ya think.
If someone wants to pick it up from, be my guest. I just 
don't have time to tab out the whole song.
Tap to rate this tab
# A B C D E F G H I J K L M N O P Q R S T U V W X Y Z