Song name
# A B C D E F G H I J K L M N O P Q R S T U V W X Y Z

Sleeping Giant - Covenant tab

Sleeping Giant 
Covenant
Off their album Dread champions of the last days.


|-----------------------------------------|
|-----------------------------------------|
|-----------------------------------------|
|-----------------------------------------|
|0-0--3-2--8-7--5--8--7--3--5--3--2--0-0--|
|0-0--3-2--8-7--5--8--7--3--5--3--2--0-0--|
 * *                                 * *


|--------------------------------|
|--------------------------------|
|--------------------------------|
|--------------------------------|
|0-0--3-2--8-7--5--8--7--3--10--8| 3 times
|0-0--3-2--8-7--5--8--7--3--10--8|
 * *

(0:23)
|-----------------------------------|
|-----------------------------------|
|-----------------------------------|
|-----------------------------------|
|0-0--8-7--0--5-7--0-0--5-3--0--2-3-|
|0-0--8-7--0--5-7--0-0--5-3--0--2-3-|
 * *       *       * *       *

|-------------------------------------|
|-------------------------------------|
|-------------------------------------|
|-------------------------------------|
|0-0--8-7--0--5-7--3--0--0--3--0-5-3-2|
|0-0--8-7--0--5-7--3--0--0--3--0-5-3-2| 2 times
 * *       *          *  *     *


Then back to intro..(0:37)

|-----------------------------------------|
|-----------------------------------------|
|-----------------------------------------|
|-----------------------------------------|
|0-0--3-2--8-7--5--8--7--3--5--3--2--0-0--|
|0-0--3-2--8-7--5--8--7--3--5--3--2--0-0--|
 * *                                 * *


|--------------------------------|
|--------------------------------|
|--------------------------------|
|--------------------------------|
|0-0--3-2--8-7--5--8--7--3--10--8| 2 times
|0-0--3-2--8-7--5--8--7--3--10--8|
 * *

(0:53)

|-----------------------------------|
|-----------------------------------|
|-----------------------------------|
|-----------------------------------|
|0-0--8-7--0--5-7--0-0--5-3--0--2-3-|
|0-0--8-7--0--5-7--0-0--5-3--0--2-3-|
 * *       *       * *       *

|-------------------------------------|
|-------------------------------------|
|-------------------------------------|
|-------------------------------------|
|0-0--8-7--0--5-7--3--0--0--3--0-5-3-2|
|0-0--8-7--0--5-7--3--0--0--3--0-5-3-2| 4 times
 * *       *          *  *     *


(1:22)

|-------------------------------------|
|-------------------------------------|
|-------------------------------------|
|-------------------------------------|
|0-0--3-2-5--0-0-0-0--5-3-2--0--3-2-3-|
|0-0--3-2-5--0-0-0-0--5-3-2--0--3-2-3-| 8 times
 * *         * * * *         * 

Back to intro again.


|-----------------------------------------|
|-----------------------------------------|
|-----------------------------------------|
|-----------------------------------------|
|0-0--3-2--8-7--5--8--7--3--5--3--2--0-0--|
|0-0--3-2--8-7--5--8--7--3--5--3--2--0-0--|
 * *                                 * *


|--------------------------------|
|--------------------------------|
|--------------------------------|
|--------------------------------|
|0-0--3-2--8-7--5--8--7--3--10--8| 2 times
|0-0--3-2--8-7--5--8--7--3--10--8|
 * *      

End.
|---|
|---|
|---|
|---|
|-0-|
|-0-|

There it is pretty simple, but all for God! 
Tap to rate this tab
 
# A B C D E F G H I J K L M N O P Q R S T U V W X Y Z