Sleeping With Sirens - With Ears To See And Eyes To Hear Acoustic tab

-------------------------------------------------------------------------------
			     WITH EARS TO SEE AND EYES TO HEAR - Sleeping With Sirens
-------------------------------------------------------------------------------
Tabbed by: iamthewhisperer


Tuning: C#

I tabbed this by ear, and my guitar is always tuned in C#, 
and I think this song sounds best in that tuning.

BUT IF YOUR GUITAR IS IN Drop D, and you don't know how to tune to C# 
then all you would need to do is transpose everything below one fret down. 
For example, the first chord would be x,1,3,3 instead of x,2,4,4 
and the second would be 4,4,4,6 instead of 5,5,5,7.


Intro:
e|------------|
B|------------|
G|--4---7-----|
D|--4---5-----| x2
A|--2---5-----|
E|--x---5-----|


Verse 1:
e|------------|
B|------------|
G|--4---7-----|
D|--4---5-----| Play those chords back and forth until the chorus
A|--2---5-----|
E|--x---5-----|
True friends lie underneath the witty words I don't believe
I can't believe a damn thing they say anymore
Lie, lie, liar. Liar, you'll pay for your sins.
Lie, lie, liar. Liar, you'll pay for your sins.


Chorus:
e|-------------------|
B|-------------------|
G|--4---7---7---6----|
D|--4---5---7---7----| x2
A|--2---5---5---4----|
E|--x---5---0---x----|
So tell me, how does it feel, how does it feel to be like you?
I think your mouth should be quiet, cause it never tells the truth.
So tell me, so tell me why? Why does it have to be this way?
Why can't things ever change?


Post-chorus:
e|------------|
B|------------|
G|--4---7-----|
D|--4---5-----| x2
A|--2---5-----|
E|--x---5-----|


Verse 2:
e|------------|
B|------------|
G|--4---7-----|
D|--4---5-----| 
A|--2---5-----|
E|--x---5-----|
Fallin' over and over again, from all the words that you have said
It's rainin' on my heart for everyone to see
From the place I was, to the place I am, to the place I wanna be
From the mountains I've been climbing over and under and over


Chorus:
e|-------------------|
B|-------------------|
G|--4---7---7---6----|
D|--4---5---7---7----| x2
A|--2---5---5---4----|
E|--x---5---0---x----|
So tell me, how does it feel, how does it feel to be like you?
I think your mouth should be quiet, cause it never tells the truth.
So tell me, so tell me why? Why does it have to be this way?
Why can't things ever change?

Bridge:
e|-----------|
B|-----------|
G|--4--------| Play this chord for the whole bridge
D|--4--------| 
A|--2--------|
E|--x--------|
Come down now, come down from your tower now
Come down now, from your tower, oh


Outro:
e|---------------------------|
B|---------------------------|
G|--7-----9-----4------7-----|
D|--7-----7-----4------5-----| x4
A|--0-----7-----2------5-----|
E|--0-----7-----x------5-----|
Come down, come down from your tower x4


************************************
Tap to rate this tab
 
# A B C D E F G H I J K L M N O P Q R S T U V W X Y Z