Sleeping With Sirens - With Ears To See And Eyes To Hear Acoustic tab

-------------------------------------------------------------------------------
			Sleeping With Sirens- With Ears To See And Eyes To Hear Acoustic
-------------------------------------------------------------------------------
Tabbed by: Steph T.
Email: tevks@yahoo.fr


Tuning: standard



Intro+verse 1

e------------------0--------------------------0
B---------0--------5----------------0---------0
G------6-----------6-------------2------------2
D----6-------6-----6----------2--------2------2
A4-----------------4------0-------------------0
E------------------x--------------------------x

        C#m                     A5



Pre-chorus ("lie, lie, liar")

0--------0
5--------0
6--------6
6--------7
4--------7
x--------5

C#m      Aadd9



Chorus ("so tell me how does it feel")

0--------0---------0---------0
5--------0---------0---------0
6--------2---------1---------8
6--------2---------2---------9
4--------0---------2---------9
x--------x---------0---------7

C#m      A5        E        B add11


0--------0--------0--------0
5--------0--------0--------0
6--------2--------1--------4
6--------2--------2--------4
4--------0--------2--------2
x--------x--------0--------x

C#m      A5       E        Bm




Post-chorus

0--------0
5--------0
6--------6
6--------7
4--------7
x--------5

C#m     Aadd9



verse 2 ("falling over and over again")

0--------0
5--------0
6--------6
6--------7
4--------7
x--------5

C#m     Aadd9



Repeat chorus



Bridge+outro ("come down now, come down from your tower")

x                                  0--------0---------0---------0
x                                  0--------0---------5---------0
6                                  1--------4---------6---------2
6    (repeat as necessary) then    2--------4---------6---------2
4                                  2--------2---------4---------0
x                                  0--------x---------x---------x

C#m                                E        Bm        C#m       A5




-------------------------------------------------------------------------------

-------------------------------------------------------------------------------
Tap to rate this tab
 
# A B C D E F G H I J K L M N O P Q R S T U V W X Y Z