Song name
# A B C D E F G H I J K L M N O P Q R S T U V W X Y Z

Sleeping With Sirens - You Kill Me In A Good Way Acoustic chords

-------------------------------------------------------------------------------
			       Sleeping With Sirens - You Kill Me (In a Good Way) Acoustic
-------------------------------------------------------------------------------
Tabbed by: Steph T.
Email: tevks@yahoo.fr

Tuning: Drop C



The same chords are played throughout the intro+verse+chorus


D|--0-------0-------0---|
A|--0-------0-------0---|
F|--12------4-------4---|
c|--12------0-------2---|
G|--10------0-------2---|
C|--10------0-------2---|


Bridge (hold on...)


D|--x-----x------x------x------|               0
A|--x-----x------x------x------|               0
F|--x-----x------x------x------|(palm mute)    0     repeat these chords 4 times
c|--5-----0------2------4------|               5
G|--0-----0------3------5------|               7
C|--x-----x------x------x------|               x


Don't you think that this is meant to be...


D|---0------0---|
A|---0------0---|
F|---0------0---|  x2
c|---5------2---|
G|---7------3---|
C|---x------x---|


And don't you think that we are...


D|---0------0------0--|
A|---7------5------5--|
F|---x------0------0--|  x2
c|---5------4------2--|
G|---7------5------3--|
C|---x------0------x--|

D|---0------0---|
A|---0------0---|
F|---4------x---|
c|---2------12--|
G|---2------10--|
C|---x------10--|



-------------------------------------------------------------------------------
			   
-------------------------------------------------------------------------------
Tap to rate this tab
 
# A B C D E F G H I J K L M N O P Q R S T U V W X Y Z