Sleeping With Sirens - All My Heart Acoustic tab

-------------------------------------------------------------------------------
			    "All My Heart"- Sleeping With Sirens
-------------------------------------------------------------------------------
Tabbed by: NicksGotTricks (@NicksGotTricks)
Email:NDHornbeck@aol.com

Tuning:Drop C


This is what I got from listening by ear... it may be a slightly different
tuning but I'm not sure, this is also my first tab soooo yea.

      pm          pm  pm	  pm  pm	  pm  pm
d|--2---2---2---0---0---0---0---3---3---3---3---2---2---2-----|
A|--3---3---3---2---2---2---2---2---2---2---3---3---3---3-----|
F|--2---2---2---3---3---3---3---3---3---3---2---2---2---2-----|
C|------------------------------------------------------------|
G|------------------------------------------------------------|
C|------------------------------------------------------------|


      pm          pm  pm	  pm  pm	  pm  pm
d|--2---2---2---0---0---0---0---3---3---3---3---2---2---2-----|
A|--3---3---3---2---2---2---2---2---2---2---3---3---3---3-----|
F|------------------------------------------------------------|
C|------------------------------------------------------------|
G|--2---2---2---2---2---2---2---2---2---2---2---2---2---2-----|
C|------------------------------------------------------------|

    ~~the ending of the chorus is something like this~~
d|------------------------------------------------------------|
A|------1---1-------------------------------------------------|
F|------------------------------------------------------------|
C|--2---2-----------------------------------------------------|
G|--2---3---2-------------------------------------------------|
C|----------3-------------------------------------------------|

tweak this in any way to make it sound better thanks and remember stay fappin' :)

************************************
| pm  Palm Mute
| /   slide up
| \   slide down
| h   hammer-on
| p   pull-off
| ~   vibrato
| +   harmonic
| x   Mute note
| b   Bend
| pb  Pre-bend
| br  Bend release
| pbr Pre-bend release
| brb Bend release bend

************************************
Tap to rate this tab
 
# A B C D E F G H I J K L M N O P Q R S T U V W X Y Z