Song name
# A B C D E F G H I J K L M N O P Q R S T U V W X Y Z

Sleeping With Sirens - All Of My Heart tab

All My Heart  Sleeping With Sirens.
-------------------------------------------------------------------------------

Tabbed by: Cassie.
Email: cassieizyay@yahoo.com.



Tuning- [DGCFAd]


Intro/Verse:

(Play this twice for intro. Second time you play it, mute at 020230)
								
|--2-----0----3----2----0--|
|--3-----3----2----3----3--|
|--2-----2----3----2----2--|
|--0-----0----0----0----0--|
|--------------------------|
|--------------------------|
                          X4 (Second and last time you play it, you play it mute at 020230)
|--2-----0----3----2----0--|
|--3-----3----2----3----3--|
|--0-----2----3----2----2--|
|--0-----0----0----0----0--|
|--2-----2----2----2----2--|
|--------------------------|



Chorus:


|--2-----0----3----2----0--|
|--3-----3----2----3----3--|
|--2-----2----3----2----2--|
|--0-----0----0----0----0--|
|--------------------------|
|--------------------------|

|--0-----3--|
|--3-----3--|
|--0-----0--|
|--2-----0--|
|--2-----2--|
|--0-----3--|


(*INTRO*)


Verse: 

|--2-----0----3----2----0--|
|--3-----3----2----3----3--|
|--2-----2----3----2----2--|
|--0-----0----0----0----0--|
|--------------------------|
|--------------------------|
                          X4 (Second and last time you play it, you play it mute at 020230)
|--2-----0----3----2----0--|
|--3-----3----2----3----3--|
|--0-----2----3----2----2--|
|--0-----0----0----0----0--|
|--2-----2----2----2----2--|
|--------------------------|


(*CHORUS*)  x2!!

Bridge: 
|--0---3---2---0---0|
|--3---3---3---3---2|
|--0---0---2---2---2|
|--2---0---0---0---0|     x4
|--2---2------------|
|--0---3------------|


(*CHORUS*)
Tap to rate this tab
 
# A B C D E F G H I J K L M N O P Q R S T U V W X Y Z