Song name
# A B C D E F G H I J K L M N O P Q R S T U V W X Y Z

Sleeping With Sirens - Roger Rabbit tab

pretty EasY MaTEs
E|-----3-------------------3-------------------------------------|   
B|-------------------1-------------------------------------------|   
G|---2---------0---2-----2---------------------------------------|   
D|-2---------2---3-----2-----------------------------------------|   
A|---------2-----------------------------------------------------|   
E|---------------------------------------------------------------|   
   
E|-3--0--0--3----------------------------------------------------|   
B|-1--0--1--0----------------------------------------------------|   
G|-2--0--0--0----------------------------------------------------|   
D|-2--2--2--0----------------------------------------------------|   
A|-0--2--3--2----------------------------------------------------|   
E|-x--0--x--3----------------------------------------------------|   
   
E|-----3-------------------3-------------------------------------|   
B|-------------------1-------------------------------------------|   
G|---2---------0---2-----2---------------------------------------|   
D|-2---------2---3-----2-----------------------------------------|   
A|---------2-----------------------------------------------------|   
E|---------------------------------------------------------------|   

E|-3--0--0--3----------------------------------------------------|   
B|-1--0--1--0----------------------------------------------------|   
G|-2--0--0--0----------------------------------------------------|   
D|-2--2--2--0----------------------------------------------------|   
A|-0--2--3--2----------------------------------------------------|   
E|-x--0--x--3----------------------------------------------------|   
      
Tap to rate this tab
# A B C D E F G H I J K L M N O P Q R S T U V W X Y Z