Song name
# A B C D E F G H I J K L M N O P Q R S T U V W X Y Z

Sleeping With Sirens - With Ears To See And Eyes To Hear Acoustic tab

-------------------------------------------------------------------------------
                             With Ears To See And Eyes To Hear Acoustic - Sleeping With Sirens
-------------------------------------------------------------------------------
Tabbed by: grizzlyangus
E-mail: acampbell4396@gmail.com

This isn't the live version Kellin did, it's from the "If You Were a Movie, This Would 
Be Your Soundtrack - EP" so there will be a huge difference from the live version from 
the studio.

Tuning: Standard


Intro

e|-----0-----------------------0-------------------------------------------------|
B|-----0-----------------------0-------------------------------------------------|
G|-----6-----------------------2-------------------------------------------------|
D|-----6-----------------------2-------------------------------------------------|
A|-----4-----------------------0-------------------------------------------------|
E|-------------------------------------------------------------------------------| x2

Verses are the same tab, just different strum patterns
e|-----0-----------------------0-------------------------------------------------|
B|-----0-----------------------0-------------------------------------------------|
G|-----6-----------------------2-------------------------------------------------|
D|-----6-----------------------2-------------------------------------------------|
A|-----4-----------------------0-------------------------------------------------|
E|-------------------------------------------------------------------------------|


Chorus
e|-----0-------------0-------------0------------0-------0---------------------------|
B|-----0-------------0-------------0------------0-------0---------------------------|
G|-----6-------------2-------------1------------4-------5---------------------------|
D|-----6-------------2-------------2------------4-------5---------------------------|
A|-----4-------------0-------------2------------2-------3---------------------------|
E|----------------------------------------------------------------------------------| x2


Outro
e|-----0--------0--------0-------0-------------------------------------------------|
B|-----0--------0--------0-------0-------------------------------------------------|
G|-----1--------4--------6-------2-------------------------------------------------|
D|-----2--------4--------6-------2-------------------------------------------------|
A|-----2--------2--------4-------0-------------------------------------------------|
E|---------------------------------------------------------------------------------|


Its a simple song, listen to it by ear and now you have the tab so go play along, enjoy :)
Tap to rate this tab
# A B C D E F G H I J K L M N O P Q R S T U V W X Y Z