Song name
# A B C D E F G H I J K L M N O P Q R S T U V W X Y Z

Sleeping With Sirens - Roger Rabbit tab

The other version of this song that someone put up is extreamly incorrect so here you go!

E|--------2-----------------5-----------2-----------------5--|
B|-----------------3-----0-----------------------3-----0-----|
G|-----0--------------0-----------0-----------------0--------|
D|--2-----------2--------------2-----2--------2--------------|
A|-----------3-----------------------------3-----------------|
E|-----------------------------------------------------------|
                      Note:(The chord you hear at the end of the
                            verse is the first chord of  the chorus)

               [CHORUS] chords
E|--0--3--0--0-----------------------------------------------|
B|--3--3--1--0-----------------------------------------------|
G|--0--0--2--0-----------------------------------------------|
D|--2--0--2--2-----------------------------------------------|
A|--3--2--0--2-----------------------------------------------|
E|--x--3--x--0-----------------------------------------------|


    BRIDGE: Some people might just use the same chords as the chorus but I prefer these chords
E|--0--2--0--0-----------------------------------------------|
B|--3--3--0--1-----------------------------------------------|
G|--0--4--0--2-----------------------------------------------|
D|--2--4--2--2-----------------------------------------------|
A|--3--2--2--0-----------------------------------------------|
E|--x--x--0--x-----------------------------------------------|

ENJOY!
Tap to rate this tab
# A B C D E F G H I J K L M N O P Q R S T U V W X Y Z