Song name
# A B C D E F G H I J K L M N O P Q R S T U V W X Y Z

Sleeping With Sirens - Scene Four - Dont You Ever Forget About Me tab

It's a fun song to play and it's not very hard
Tuning is Drop D

You can figure out the timing and strumming pattern by listening to it.
Any question, email me at cmcdonald11493@aol.com

Verse
e|-------------|
B|-------------|
G|---11---9----|
D|---x----x----|
A|---9----7----|
D|-------------|

Chorus
e|---2--------2---------------------2--------2--|
B|---3--------3---------------------3--------3--|
G|---2--4--7--2--4--7--11--11-9--4--2--4--7--2--|
D|---0--2--5--0--2--5--x---x--x--x--0--2--5--0--|
A|---0--2--5--0--2--5--9---9--7--2--0--2--5--0--|
D|------2--5-----2--5------8-----------2--5-----|

Bridge
e|-----------------------------------------------------------------|
B|-----------------------------------------------------------------|
G|---4---6-7---4---6-7---4---6-7---4---6-7-------------------------|
D|---2---4-5---2---4-5---2---4-5---2---4-5---0~-2-5~--0~-2-5~--5---|
A|---2---4-5---2---4-5---2---4-5---2---4-5---0~-2-5~--0~-2-5~--5---|
D|---2---4-5---2---4-5---2---4-5---2---4-5---0~-2-5~--0~-2-5~--5---|

Outro
e|-------------------|
B|-------------------|
G|---11--11-9--4--7--|
D|---x---x--x--x--x--|
A|---9---9--7--2--5--|
D|-------8-----------|
Tap to rate this tab
 
# A B C D E F G H I J K L M N O P Q R S T U V W X Y Z